  0
SECTION
  2
HEADER
  9
$ACADVER
  1
AC1015
  9
$ACADMAINTVER
 70
     6
  9
$DWGCODEPAGE
  3
ANSI_1254
  9
$INSBASE
 10
0.0
 20
0.0
 30
0.0
  9
$EXTMIN
 10
0.0
 20
0.0
 30
0.0
  9
$EXTMAX
 10
279.4
 20
215.9
 30
0.0
  9
$LIMMIN
 10
0.0
 20
0.0
  9
$LIMMAX
 10
279.4
 20
215.9
  9
$ORTHOMODE
 70
     0
  9
$REGENMODE
 70
     1
  9
$FILLMODE
 70
     1
  9
$QTEXTMODE
 70
     0
  9
$MIRRTEXT
 70
     1
  9
$LTSCALE
 40
1.0
  9
$ATTMODE
 70
     1
  9
$TEXTSIZE
 40
3.5
  9
$TRACEWID
 40
1.0
  9
$TEXTSTYLE
  7
Standard
  9
$CLAYER
  8
0
  9
$CELTYPE
  6
ByLayer
  9
$CECOLOR
 62
   256
  9
$CELTSCALE
 40
1.0
  9
$DISPSILH
 70
     0
  9
$DIMSCALE
 40
1.0
  9
$DIMASZ
 40
3.5
  9
$DIMEXO
 40
1.0
  9
$DIMDLI
 40
3.75
  9
$DIMRND
 40
0.0
  9
$DIMDLE
 40
0.0
  9
$DIMEXE
 40
1.0
  9
$DIMTP
 40
0.0
  9
$DIMTM
 40
0.0
  9
$DIMTXT
 40
3.5
  9
$DIMCEN
 40
2.5
  9
$DIMTSZ
 40
0.0
  9
$DIMTOL
 70
     0
  9
$DIMLIM
 70
     0
  9
$DIMTIH
 70
     1
  9
$DIMTOH
 70
     1
  9
$DIMSE1
 70
     0
  9
$DIMSE2
 70
     0
  9
$DIMTAD
 70
     1
  9
$DIMZIN
 70
     0
  9
$DIMBLK
  1

  9
$DIMASO
 70
     1
  9
$DIMSHO
 70
     1
  9
$DIMPOST
  1

  9
$DIMAPOST
  1

  9
$DIMALT
 70
     0
  9
$DIMALTD
 70
     3
  9
$DIMALTF
 40
0.0393700787
  9
$DIMLFAC
 40
1.0
  9
$DIMTOFL
 70
     1
  9
$DIMTVP
 40
0.0
  9
$DIMTIX
 70
     0
  9
$DIMSOXD
 70
     0
  9
$DIMSAH
 70
     0
  9
$DIMBLK1
  1

  9
$DIMBLK2
  1

  9
$DIMSTYLE
  2
ISO-25
  9
$DIMCLRD
 70
     0
  9
$DIMCLRE
 70
     0
  9
$DIMCLRT
 70
     0
  9
$DIMTFAC
 40
1.0
  9
$DIMGAP
 40
1.524
  9
$DIMJUST
 70
     0
  9
$DIMSD1
 70
     0
  9
$DIMSD2
 70
     0
  9
$DIMTOLJ
 70
     0
  9
$DIMTZIN
 70
     0
  9
$DIMALTZ
 70
     0
  9
$DIMALTTZ
 70
     0
  9
$DIMUPT
 70
     0
  9
$DIMDEC
 70
     2
  9
$DIMTDEC
 70
     2
  9
$DIMALTU
 70
     2
  9
$DIMALTTD
 70
     3
  9
$DIMTXSTY
  7
Standard
  9
$DIMAUNIT
 70
     0
  9
$DIMADEC
 70
     2
  9
$DIMALTRND
 40
0.0
  9
$DIMAZIN
 70
     0
  9
$DIMDSEP
 70
    44
  9
$DIMATFIT
 70
     3
  9
$DIMFRAC
 70
     0
  9
$DIMLDRBLK
  1

  9
$DIMLUNIT
 70
     2
  9
$DIMLWD
 70
    -2
  9
$DIMLWE
 70
    -2
  9
$DIMTMOVE
 70
     0
  9
$LUNITS
 70
     2
  9
$LUPREC
 70
     2
  9
$SKETCHINC
 40
1.0
  9
$FILLETRAD
 40
10.0
  9
$AUNITS
 70
     0
  9
$AUPREC
 70
     2
  9
$MENU
  1
.
  9
$ELEVATION
 40
0.0
  9
$PELEVATION
 40
0.0
  9
$THICKNESS
 40
0.0
  9
$LIMCHECK
 70
     0
  9
$CHAMFERA
 40
0.0
  9
$CHAMFERB
 40
0.0
  9
$CHAMFERC
 40
0.0
  9
$CHAMFERD
 40
0.0
  9
$SKPOLY
 70
     0
  9
$TDCREATE
 40
2459741.604578993
  9
$TDUCREATE
 40
2459741.479578993
  9
$TDUPDATE
 40
2459741.604579248
  9
$TDUUPDATE
 40
2459741.479579248
  9
$TDINDWG
 40
0.0000000116
  9
$TDUSRTIMER
 40
0.0000000116
  9
$USRTIMER
 70
     1
  9
$ANGBASE
 50
0.0
  9
$ANGDIR
 70
     0
  9
$PDMODE
 70
     0
  9
$PDSIZE
 40
-1.0
  9
$PLINEWID
 40
0.0
  9
$SPLFRAME
 70
     0
  9
$SPLINETYPE
 70
     6
  9
$SPLINESEGS
 70
     8
  9
$HANDSEED
  5
121
  9
$SURFTAB1
 70
     6
  9
$SURFTAB2
 70
     6
  9
$SURFTYPE
 70
     6
  9
$SURFU
 70
     6
  9
$SURFV
 70
     6
  9
$UCSBASE
  2

  9
$UCSNAME
  2

  9
$UCSORG
 10
0.0
 20
0.0
 30
0.0
  9
$UCSXDIR
 10
1.0
 20
0.0
 30
0.0
  9
$UCSYDIR
 10
0.0
 20
1.0
 30
0.0
  9
$UCSORTHOREF
  2

  9
$UCSORTHOVIEW
 70
     0
  9
$UCSORGTOP
 10
0.0
 20
0.0
 30
0.0
  9
$UCSORGBOTTOM
 10
0.0
 20
0.0
 30
0.0
  9
$UCSORGLEFT
 10
0.0
 20
0.0
 30
0.0
  9
$UCSORGRIGHT
 10
0.0
 20
0.0
 30
0.0
  9
$UCSORGFRONT
 10
0.0
 20
0.0
 30
0.0
  9
$UCSORGBACK
 10
0.0
 20
0.0
 30
0.0
  9
$PUCSBASE
  2

  9
$PUCSNAME
  2

  9
$PUCSORG
 10
0.0
 20
0.0
 30
0.0
  9
$PUCSXDIR
 10
1.0
 20
0.0
 30
0.0
  9
$PUCSYDIR
 10
0.0
 20
1.0
 30
0.0
  9
$PUCSORTHOREF
  2

  9
$PUCSORTHOVIEW
 70
     0
  9
$PUCSORGTOP
 10
0.0
 20
0.0
 30
0.0
  9
$PUCSORGBOTTOM
 10
0.0
 20
0.0
 30
0.0
  9
$PUCSORGLEFT
 10
0.0
 20
0.0
 30
0.0
  9
$PUCSORGRIGHT
 10
0.0
 20
0.0
 30
0.0
  9
$PUCSORGFRONT
 10
0.0
 20
0.0
 30
0.0
  9
$PUCSORGBACK
 10
0.0
 20
0.0
 30
0.0
  9
$USERI1
 70
     0
  9
$USERI2
 70
     0
  9
$USERI3
 70
     0
  9
$USERI4
 70
     0
  9
$USERI5
 70
     0
  9
$USERR1
 40
0.0
  9
$USERR2
 40
0.0
  9
$USERR3
 40
0.0
  9
$USERR4
 40
0.0
  9
$USERR5
 40
0.0
  9
$WORLDVIEW
 70
     1
  9
$SHADEDGE
 70
     3
  9
$SHADEDIF
 70
    70
  9
$TILEMODE
 70
     1
  9
$MAXACTVP
 70
    64
  9
$PINSBASE
 10
0.0
 20
0.0
 30
0.0
  9
$PLIMCHECK
 70
     0
  9
$PEXTMIN
 10
1.0000000000E+20
 20
1.0000000000E+20
 30
1.0000000000E+20
  9
$PEXTMAX
 10
-1.0000000000E+20
 20
-1.0000000000E+20
 30
-1.0000000000E+20
  9
$PLIMMIN
 10
0.0
 20
0.0
  9
$PLIMMAX
 10
420.0
 20
297.0
  9
$UNITMODE
 70
     0
  9
$VISRETAIN
 70
     1
  9
$PLINEGEN
 70
     0
  9
$PSLTSCALE
 70
     1
  9
$TREEDEPTH
 70
  3020
  9
$CMLSTYLE
  2
Standard
  9
$CMLJUST
 70
     0
  9
$CMLSCALE
 40
20.0
  9
$PROXYGRAPHICS
 70
     1
  9
$MEASUREMENT
 70
     1
  9
$CELWEIGHT
370
    -1
  9
$ENDCAPS
280
     0
  9
$JOINSTYLE
280
     0
  9
$LWDISPLAY
290
     1
  9
$INSUNITS
 70
     4
  9
$HYPERLINKBASE
  1

  9
$STYLESHEET
  1

  9
$XEDIT
290
     1
  9
$CEPSNTYPE
380
     0
  9
$PSTYLEMODE
290
     1
  9
$FINGERPRINTGUID
  2
{39696b90-edea-44e1-b4ba-3005ab8f9a29}
  9
$VERSIONGUID
  2
{FAEB1C32-E019-11D5-929B-00C0DF256EC4}
  9
$EXTNAMES
290
     1
  9
$PSVPSCALE
 40
0.0
  9
$OLESTARTUP
290
     0
  0
ENDSEC
  0
SECTION
  2
CLASSES
  0
CLASS
  1
ACDBDICTIONARYWDFLT
  2
AcDbDictionaryWithDefault
  3
ObjectDBX Classes
 90
        0
280
     0
281
     0
  0
CLASS
  1
VISUALSTYLE
  2
AcDbVisualStyle
  3
ObjectDBX Classes
 90
     4095
280
     0
281
     0
  0
CLASS
  1
MATERIAL
  2
AcDbMaterial
  3
ObjectDBX Classes
 90
     1153
280
     0
281
     0
  0
CLASS
  1
SCALE
  2
AcDbScale
  3
ObjectDBX Classes
 90
     1153
280
     0
281
     0
  0
CLASS
  1
TABLESTYLE
  2
AcDbTableStyle
  3
ObjectDBX Classes
 90
     4095
280
     0
281
     0
  0
CLASS
  1
MLEADERSTYLE
  2
AcDbMLeaderStyle
  3
ACDB_MLEADERSTYLE_CLASS
 90
     4095
280
     0
281
     0
  0
CLASS
  1
SUN
  2
AcDbSun
  3
SCENEOE
 90
     1153
280
     0
281
     0
  0
CLASS
  1
ACDBPLACEHOLDER
  2
AcDbPlaceHolder
  3
ObjectDBX Classes
 90
        0
280
     0
281
     0
  0
CLASS
  1
LAYOUT
  2
AcDbLayout
  3
ObjectDBX Classes
 90
        0
280
     0
281
     0
  0
ENDSEC
  0
SECTION
  2
TABLES
  0
TABLE
  2
VPORT
  5
8
330
0
100
AcDbSymbolTable
 70
     1
  0
VPORT
  5
29
330
8
100
AcDbSymbolTableRecord
100
AcDbViewportTableRecord
  2
*Active
 70
     0
 10
0.0
 20
0.0
 11
1.0
 21
1.0
 12
139.7
 22
107.95
 13
0.0
 23
0.0
 14
10.0
 24
10.0
 15
10.0
 25
10.0
 16
0.0
 26
0.0
 36
1.0
 17
0.0
 27
0.0
 37
0.0
 40
215.9
 41
1.2941176471
 42
50.0
 43
0.0
 44
0.0
 50
0.0
 51
0.0
 71
     0
 72
  2000
 73
     1
 74
     3
 75
     0
 76
     0
 77
     0
 78
     0
281
     0
 65
     1
110
0.0
120
0.0
130
0.0
111
1.0
121
0.0
131
0.0
112
0.0
122
1.0
132
0.0
 79
     0
146
0.0
  0
ENDTAB
  0
TABLE
  2
LTYPE
  5
5
330
0
100
AcDbSymbolTable
 70
     6
  0
LTYPE
  5
14
330
5
100
AcDbSymbolTableRecord
100
AcDbLinetypeTableRecord
  2
ByBlock
 70
     0
  3

 72
    65
 73
     0
 40
0.0
  0
LTYPE
  5
15
330
5
100
AcDbSymbolTableRecord
100
AcDbLinetypeTableRecord
  2
ByLayer
 70
     0
  3

 72
    65
 73
     0
 40
0.0
  0
LTYPE
  5
16
330
5
100
AcDbSymbolTableRecord
100
AcDbLinetypeTableRecord
  2
Continuous
 70
     0
  3
Solid line
 72
    65
 73
     0
 40
0.0
  0
LTYPE
  5
6E
330
5
100
AcDbSymbolTableRecord
100
AcDbLinetypeTableRecord
  2
HIDDEN
 70
     0
  3
Hidden __ __ __ __ __ __ __ __ __ __ __ __ __ __
 72
    65
 73
     2
 40
1.905
 49
1.27
 74
     0
 49
-0.635
 74
     0
  0
LTYPE
  5
6F
330
5
100
AcDbSymbolTableRecord
100
AcDbLinetypeTableRecord
  2
PHANTOM
 70
     0
  3
Phantom ______  __  __  ______  __  __  ______
 72
    65
 73
     6
 40
12.7
 49
6.35
 74
     0
 49
-1.27
 74
     0
 49
1.27
 74
     0
 49
-1.27
 74
     0
 49
1.27
 74
     0
 49
-1.27
 74
     0
  0
LTYPE
  5
70
330
5
100
AcDbSymbolTableRecord
100
AcDbLinetypeTableRecord
  2
CENTER
 70
     0
  3
Center ____ _ ____ _ ____ _ ____ _ ____ _ ____
 72
    65
 73
     4
 40
10.16
 49
6.35
 74
     0
 49
-1.27
 74
     0
 49
1.27
 74
     0
 49
-1.27
 74
     0
  0
LTYPE
  5
71
330
5
100
AcDbSymbolTableRecord
100
AcDbLinetypeTableRecord
  2
CENTERX2
 70
     0
  3
Center (2x) ________  __  ________  __  _____
 72
    65
 73
     4
 40
20.32
 49
12.7
 74
     0
 49
-2.54
 74
     0
 49
2.54
 74
     0
 49
-2.54
 74
     0
  0
LTYPE
  5
72
330
5
100
AcDbSymbolTableRecord
100
AcDbLinetypeTableRecord
  2
DOT2
 70
     0
  3
Dot (.5x) ........................................
 72
    65
 73
     2
 40
0.635
 49
0.0
 74
     0
 49
-0.635
 74
     0
  0
ENDTAB
  0
TABLE
  2
LAYER
  5
2
330
0
100
AcDbSymbolTable
 70
    17
  0
LAYER
  5
10
330
2
100
AcDbSymbolTableRecord
100
AcDbLayerTableRecord
  2
0
 70
     0
 62
     7
  6
Continuous
370
    -3
390
F
  0
LAYER
  5
73
330
2
100
AcDbSymbolTableRecord
100
AcDbLayerTableRecord
  2
FORMAT
 70
     0
 62
     7
  6
Continuous
370
    -3
390
F
  0
LAYER
  5
74
330
2
100
AcDbSymbolTableRecord
100
AcDbLayerTableRecord
  2
YARDIMCI_GEOMETRI
 70
     0
 62
    -6
  6
Continuous
290
     0
370
    -3
390
F
  0
LAYER
  5
75
330
2
100
AcDbSymbolTableRecord
100
AcDbLayerTableRecord
  2
SAYFA_CERCEVESI
 70
     0
 62
     7
  6
Continuous
370
    25
390
F
  0
LAYER
  5
76
330
2
100
AcDbSymbolTableRecord
100
AcDbLayerTableRecord
  2
ANTET
 70
     0
 62
     7
  6
Continuous
370
    -3
390
F
  0
LAYER
  5
77
330
2
100
AcDbSymbolTableRecord
100
AcDbLayerTableRecord
  2
OLCU
 70
     0
 62
   150
  6
Continuous
370
    -3
390
F
  0
LAYER
  5
78
330
2
100
AcDbSymbolTableRecord
100
AcDbLayerTableRecord
  2
METIN
 70
     0
 62
    96
  6
Continuous
370
    -3
390
F
  0
LAYER
  5
79
330
2
100
AcDbSymbolTableRecord
100
AcDbLayerTableRecord
  2
BALON
 70
     0
 62
     5
  6
Continuous
370
    -3
390
F
  0
LAYER
  5
7A
330
2
100
AcDbSymbolTableRecord
100
AcDbLayerTableRecord
  2
VURGU
 70
     0
 62
     7
  6
Continuous
370
    -3
390
F
  0
LAYER
  5
7B
330
2
100
AcDbSymbolTableRecord
100
AcDbLayerTableRecord
  2
SILIK
 70
     0
 62
     7
  6
Continuous
370
    -3
390
F
  0
LAYER
  5
7C
330
2
100
AcDbSymbolTableRecord
100
AcDbLayerTableRecord
  2
MODEL
 70
     0
 62
     7
  6
Continuous
370
    -3
390
F
  0
LAYER
  5
7D
330
2
100
AcDbSymbolTableRecord
100
AcDbLayerTableRecord
  2
DETAYLANDıRMA
 70
     0
 62
   190
  6
Continuous
370
    -3
390
F
  0
LAYER
  5
7E
330
2
100
AcDbSymbolTableRecord
100
AcDbLayerTableRecord
  2
TOLERANS
 70
     0
 62
   230
  6
Continuous
370
    -3
390
F
  0
LAYER
  5
7F
330
2
100
AcDbSymbolTableRecord
100
AcDbLayerTableRecord
  2
MERKEZ_CIZGILERI
 70
     0
 62
    30
  6
Continuous
370
    -3
390
F
  0
LAYER
  5
80
330
2
100
AcDbSymbolTableRecord
100
AcDbLayerTableRecord
  2
KESIT-DETAY_CIZGILERI
 70
     0
 62
     7
  6
Continuous
370
    -3
390
F
  0
LAYER
  5
81
330
2
100
AcDbSymbolTableRecord
100
AcDbLayerTableRecord
  2
\U+041E\U+0421\U+0415\U+0412\U+042B\U+0415
 70
     0
 62
     7
  6
Continuous
370
    -3
390
F
  0
LAYER
  5
82
330
2
100
AcDbSymbolTableRecord
100
AcDbLayerTableRecord
  2
\U+0412\U+041E\U+0414\U+042F\U+041D\U+042B\U+0415_\U+0417\U+041D\U+0410\U+041A\U+0418
 70
     0
 62
    11
  6
Continuous
370
    -3
390
F
  0
ENDTAB
  0
TABLE
  2
STYLE
  5
3
330
0
100
AcDbSymbolTable
 70
     1
  0
STYLE
  5
11
330
3
100
AcDbSymbolTableRecord
100
AcDbTextStyleTableRecord
  2
Standard
 70
     0
 40
0.0
 41
1.0
 50
0.0
 71
     0
 42
3.5
  3
txt
  4

  0
ENDTAB
  0
TABLE
  2
VIEW
  5
6
330
0
100
AcDbSymbolTable
 70
     0
  0
ENDTAB
  0
TABLE
  2
UCS
  5
7
330
0
100
AcDbSymbolTable
 70
     0
  0
ENDTAB
  0
TABLE
  2
APPID
  5
9
330
0
100
AcDbSymbolTable
 70
     1
  0
APPID
  5
12
330
9
100
AcDbSymbolTableRecord
100
AcDbRegAppTableRecord
  2
ACAD
 70
     0
  0
ENDTAB
  0
TABLE
  2
DIMSTYLE
  5
A
330
0
100
AcDbSymbolTable
 70
     1
100
AcDbDimStyleTable
  0
DIMSTYLE
105
27
330
A
100
AcDbSymbolTableRecord
100
AcDbDimStyleTableRecord
  2
ISO-25
 70
     0
 41
2.5
 42
0.625
 43
3.75
 44
1.25
 73
     0
 74
     0
 77
     1
 78
     8
140
2.5
141
2.5
143
0.0393700787
147
0.625
171
     3
172
     1
178
     0
271
     2
272
     2
274
     3
278
    44
283
     0
284
     8
340
11
  0
ENDTAB
  0
TABLE
  2
BLOCK_RECORD
  5
1
330
0
100
AcDbSymbolTable
 70
     5
  0
BLOCK_RECORD
  5
1F
330
1
100
AcDbSymbolTableRecord
100
AcDbBlockTableRecord
  2
*Model_Space
340
22
  0
BLOCK_RECORD
  5
1B
330
1
100
AcDbSymbolTableRecord
100
AcDbBlockTableRecord
  2
*Paper_Space
340
1E
  0
BLOCK_RECORD
  5
23
330
1
100
AcDbSymbolTableRecord
100
AcDbBlockTableRecord
  2
*Paper_Space0
340
26
  0
BLOCK_RECORD
  5
A5
330
1
100
AcDbSymbolTableRecord
100
AcDbBlockTableRecord
  2
SW_CENTERMARKSYMBOL_0
340
0
102
{BLKREFS
331
B0
102
}
  0
BLOCK_RECORD
  5
C1
330
1
100
AcDbSymbolTableRecord
100
AcDbBlockTableRecord
  2
SW_CENTERMARKSYMBOL_1
340
0
102
{BLKREFS
331
CC
102
}
  0
BLOCK_RECORD
  5
DE
330
1
100
AcDbSymbolTableRecord
100
AcDbBlockTableRecord
  2
SW_CENTERMARKSYMBOL_2
340
0
102
{BLKREFS
331
E9
102
}
  0
BLOCK_RECORD
  5
F9
330
1
100
AcDbSymbolTableRecord
100
AcDbBlockTableRecord
  2
SW_CENTERMARKSYMBOL_3
340
0
102
{BLKREFS
331
104
102
}
  0
ENDTAB
  0
ENDSEC
  0
SECTION
  2
BLOCKS
  0
BLOCK
  5
20
330
1F
100
AcDbEntity
  8
0
100
AcDbBlockBegin
  2
*Model_Space
 70
     0
 10
0.0
 20
0.0
 30
0.0
  3
*Model_Space
  1

  0
ENDBLK
  5
21
330
1F
100
AcDbEntity
  8
0
100
AcDbBlockEnd
  0
BLOCK
  5
1C
330
1B
100
AcDbEntity
 67
     1
  8
0
100
AcDbBlockBegin
  2
*Paper_Space
 70
     0
 10
0.0
 20
0.0
 30
0.0
  3
*Paper_Space
  1

  0
ENDBLK
  5
1D
330
1B
100
AcDbEntity
 67
     1
  8
0
100
AcDbBlockEnd
  0
BLOCK
  5
24
330
23
100
AcDbEntity
  8
0
100
AcDbBlockBegin
  2
*Paper_Space0
 70
     0
 10
0.0
 20
0.0
 30
0.0
  3
*Paper_Space0
  1

  0
ENDBLK
  5
25
330
23
100
AcDbEntity
  8
0
100
AcDbBlockEnd
  0
BLOCK
  5
A6
330
A5
100
AcDbEntity
  8
0
100
AcDbBlockBegin
  2
SW_CENTERMARKSYMBOL_0
 70
     0
 10
0.0
 20
0.0
 30
0.0
  3
SW_CENTERMARKSYMBOL_0
  1

  0
LINE
  5
A8
330
A5
100
AcDbEntity
  8
FORMAT
 62
     0
100
AcDbLine
 10
0.0
 20
0.0
 30
0.0
 11
0.0
 21
2.5
 31
0.0
  0
LINE
  5
A9
330
A5
100
AcDbEntity
  8
FORMAT
 62
     0
100
AcDbLine
 10
0.0
 20
0.0
 30
0.0
 11
-2.5
 21
0.0
 31
0.0
  0
LINE
  5
AA
330
A5
100
AcDbEntity
  8
FORMAT
 62
     0
100
AcDbLine
 10
0.0
 20
0.0
 30
0.0
 11
0.0
 21
-2.5
 31
0.0
  0
LINE
  5
AB
330
A5
100
AcDbEntity
  8
FORMAT
 62
     0
100
AcDbLine
 10
0.0
 20
0.0
 30
0.0
 11
2.5
 21
0.0
 31
0.0
  0
LINE
  5
AC
330
A5
100
AcDbEntity
  8
FORMAT
 62
     0
100
AcDbLine
 10
0.0
 20
5.0
 30
0.0
 11
0.0
 21
79.5
 31
0.0
  0
LINE
  5
AD
330
A5
100
AcDbEntity
  8
FORMAT
 62
     0
100
AcDbLine
 10
-5.0
 20
0.0
 30
0.0
 11
-79.5
 21
0.0
 31
0.0
  0
LINE
  5
AE
330
A5
100
AcDbEntity
  8
FORMAT
 62
     0
100
AcDbLine
 10
0.0
 20
-5.0
 30
0.0
 11
0.0
 21
-79.5
 31
0.0
  0
LINE
  5
AF
330
A5
100
AcDbEntity
  8
FORMAT
 62
     0
100
AcDbLine
 10
5.0
 20
0.0
 30
0.0
 11
79.5
 21
0.0
 31
0.0
  0
ENDBLK
  5
A7
330
A5
100
AcDbEntity
  8
0
100
AcDbBlockEnd
  0
BLOCK
  5
C2
330
C1
100
AcDbEntity
  8
0
100
AcDbBlockBegin
  2
SW_CENTERMARKSYMBOL_1
 70
     0
 10
0.0
 20
0.0
 30
0.0
  3
SW_CENTERMARKSYMBOL_1
  1

  0
LINE
  5
C4
330
C1
100
AcDbEntity
  8
FORMAT
 62
     0
100
AcDbLine
 10
0.0
 20
0.0
 30
0.0
 11
0.0
 21
2.5
 31
0.0
  0
LINE
  5
C5
330
C1
100
AcDbEntity
  8
FORMAT
 62
     0
100
AcDbLine
 10
0.0
 20
0.0
 30
0.0
 11
-2.5
 21
0.0
 31
0.0
  0
LINE
  5
C6
330
C1
100
AcDbEntity
  8
FORMAT
 62
     0
100
AcDbLine
 10
0.0
 20
0.0
 30
0.0
 11
0.0
 21
-2.5
 31
0.0
  0
LINE
  5
C7
330
C1
100
AcDbEntity
  8
FORMAT
 62
     0
100
AcDbLine
 10
0.0
 20
0.0
 30
0.0
 11
2.5
 21
0.0
 31
0.0
  0
LINE
  5
C8
330
C1
100
AcDbEntity
  8
FORMAT
 62
     0
100
AcDbLine
 10
0.0
 20
5.0
 30
0.0
 11
0.0
 21
79.5
 31
0.0
  0
LINE
  5
C9
330
C1
100
AcDbEntity
  8
FORMAT
 62
     0
100
AcDbLine
 10
-5.0
 20
0.0
 30
0.0
 11
-79.5
 21
0.0
 31
0.0
  0
LINE
  5
CA
330
C1
100
AcDbEntity
  8
FORMAT
 62
     0
100
AcDbLine
 10
0.0
 20
-5.0
 30
0.0
 11
0.0
 21
-79.5
 31
0.0
  0
LINE
  5
CB
330
C1
100
AcDbEntity
  8
FORMAT
 62
     0
100
AcDbLine
 10
5.0
 20
0.0
 30
0.0
 11
79.5
 21
0.0
 31
0.0
  0
ENDBLK
  5
C3
330
C1
100
AcDbEntity
  8
0
100
AcDbBlockEnd
  0
BLOCK
  5
DF
330
DE
100
AcDbEntity
  8
0
100
AcDbBlockBegin
  2
SW_CENTERMARKSYMBOL_2
 70
     0
 10
0.0
 20
0.0
 30
0.0
  3
SW_CENTERMARKSYMBOL_2
  1

  0
LINE
  5
E1
330
DE
100
AcDbEntity
  8
FORMAT
 62
     0
100
AcDbLine
 10
0.0
 20
0.0
 30
0.0
 11
0.0
 21
2.5
 31
0.0
  0
LINE
  5
E2
330
DE
100
AcDbEntity
  8
FORMAT
 62
     0
100
AcDbLine
 10
0.0
 20
0.0
 30
0.0
 11
-2.5
 21
0.0
 31
0.0
  0
LINE
  5
E3
330
DE
100
AcDbEntity
  8
FORMAT
 62
     0
100
AcDbLine
 10
0.0
 20
0.0
 30
0.0
 11
0.0
 21
-2.5
 31
0.0
  0
LINE
  5
E4
330
DE
100
AcDbEntity
  8
FORMAT
 62
     0
100
AcDbLine
 10
0.0
 20
0.0
 30
0.0
 11
2.5
 21
0.0
 31
0.0
  0
LINE
  5
E5
330
DE
100
AcDbEntity
  8
FORMAT
 62
     0
100
AcDbLine
 10
0.0
 20
5.0
 30
0.0
 11
0.0
 21
79.5
 31
0.0
  0
LINE
  5
E6
330
DE
100
AcDbEntity
  8
FORMAT
 62
     0
100
AcDbLine
 10
-5.0
 20
0.0
 30
0.0
 11
-79.5
 21
0.0
 31
0.0
  0
LINE
  5
E7
330
DE
100
AcDbEntity
  8
FORMAT
 62
     0
100
AcDbLine
 10
0.0
 20
-5.0
 30
0.0
 11
0.0
 21
-79.5
 31
0.0
  0
LINE
  5
E8
330
DE
100
AcDbEntity
  8
FORMAT
 62
     0
100
AcDbLine
 10
5.0
 20
0.0
 30
0.0
 11
79.5
 21
0.0
 31
0.0
  0
ENDBLK
  5
E0
330
DE
100
AcDbEntity
  8
0
100
AcDbBlockEnd
  0
BLOCK
  5
FA
330
F9
100
AcDbEntity
  8
0
100
AcDbBlockBegin
  2
SW_CENTERMARKSYMBOL_3
 70
     0
 10
0.0
 20
0.0
 30
0.0
  3
SW_CENTERMARKSYMBOL_3
  1

  0
LINE
  5
FC
330
F9
100
AcDbEntity
  8
FORMAT
 62
     0
100
AcDbLine
 10
0.0
 20
0.0
 30
0.0
 11
0.0
 21
2.5
 31
0.0
  0
LINE
  5
FD
330
F9
100
AcDbEntity
  8
FORMAT
 62
     0
100
AcDbLine
 10
0.0
 20
0.0
 30
0.0
 11
-2.5
 21
0.0
 31
0.0
  0
LINE
  5
FE
330
F9
100
AcDbEntity
  8
FORMAT
 62
     0
100
AcDbLine
 10
0.0
 20
0.0
 30
0.0
 11
0.0
 21
-2.5
 31
0.0
  0
LINE
  5
FF
330
F9
100
AcDbEntity
  8
FORMAT
 62
     0
100
AcDbLine
 10
0.0
 20
0.0
 30
0.0
 11
2.5
 21
0.0
 31
0.0
  0
LINE
  5
100
330
F9
100
AcDbEntity
  8
FORMAT
 62
     0
100
AcDbLine
 10
0.0
 20
5.0
 30
0.0
 11
0.0
 21
79.5
 31
0.0
  0
LINE
  5
101
330
F9
100
AcDbEntity
  8
FORMAT
 62
     0
100
AcDbLine
 10
-5.0
 20
0.0
 30
0.0
 11
-79.5
 21
0.0
 31
0.0
  0
LINE
  5
102
330
F9
100
AcDbEntity
  8
FORMAT
 62
     0
100
AcDbLine
 10
0.0
 20
-5.0
 30
0.0
 11
0.0
 21
-79.5
 31
0.0
  0
LINE
  5
103
330
F9
100
AcDbEntity
  8
FORMAT
 62
     0
100
AcDbLine
 10
5.0
 20
0.0
 30
0.0
 11
79.5
 21
0.0
 31
0.0
  0
ENDBLK
  5
FB
330
F9
100
AcDbEntity
  8
0
100
AcDbBlockEnd
  0
ENDSEC
  0
SECTION
  2
ENTITIES
  0
LINE
  5
83
330
1F
100
AcDbEntity
  8
0
  6
Continuous
 62
     7
370
    25
100
AcDbLine
 10
30.6523855846
 20
66.3393601331
 30
0.0
 11
30.6523855846
 21
-7.6606398669
 31
0.0
  0
LINE
  5
84
330
1F
100
AcDbEntity
  8
0
  6
Continuous
 62
     7
370
    25
100
AcDbLine
 10
184.6523855846
 20
-7.6606398669
 30
0.0
 11
184.6523855846
 21
66.3393601331
 31
0.0
  0
ARC
  5
85
330
1F
100
AcDbEntity
  8
0
  6
Continuous
 62
     7
370
    25
100
AcDbCircle
 10
185.6523855846
 20
66.3393601331
 30
0.0
 40
1.0
100
AcDbArc
 50
90.0
 51
180.0
  0
ARC
  5
86
330
1F
100
AcDbEntity
  8
0
  6
Continuous
 62
     7
370
    25
100
AcDbCircle
 10
185.6523855846
 20
66.3393601331
 30
0.0
 40
155.0
100
AcDbArc
 50
90.0
 51
180.0
  0
LINE
  5
87
330
1F
100
AcDbEntity
  8
0
  6
Continuous
 62
     7
370
    25
100
AcDbLine
 10
259.6523855846
 20
221.3393601331
 30
0.0
 11
185.6523855846
 21
221.3393601331
 31
0.0
  0
LINE
  5
88
330
1F
100
AcDbEntity
  8
0
  6
Continuous
 62
     7
370
    25
100
AcDbLine
 10
185.6523855846
 20
67.3393601331
 30
0.0
 11
259.6523855846
 21
67.3393601331
 31
0.0
  0
CIRCLE
  5
89
330
1F
100
AcDbEntity
  8
0
  6
Continuous
 62
     7
370
    25
100
AcDbCircle
 10
107.6523855846
 20
2.3393601331
 30
0.0
 40
5.000000000000014
  0
CIRCLE
  5
8A
330
1F
100
AcDbEntity
  8
0
  6
Continuous
 62
     7
370
    25
100
AcDbCircle
 10
107.6523855846
 20
2.3393601331
 30
0.0
 40
7.000000000000014
  0
CIRCLE
  5
8B
330
1F
100
AcDbEntity
  8
0
  6
Continuous
 62
     7
370
    25
100
AcDbCircle
 10
249.6523855846
 20
144.3393601331
 30
0.0
 40
7.0
  0
CIRCLE
  5
8C
330
1F
100
AcDbEntity
  8
0
  6
Continuous
 62
     7
370
    25
100
AcDbCircle
 10
249.6523855846
 20
144.3393601331
 30
0.0
 40
5.000000000000028
  0
LINE
  5
8D
330
1F
100
AcDbEntity
  8
0
  6
Continuous
 62
     7
370
    25
100
AcDbLine
 10
107.6523855846
 20
-7.6606398669
 30
0.0
 11
184.6523855846
 21
-7.6606398669
 31
0.0
  0
LINE
  5
8E
330
1F
100
AcDbEntity
  8
0
  6
Continuous
 62
     7
370
    25
100
AcDbLine
 10
30.6523855846
 20
-7.6606398669
 30
0.0
 11
107.6523855846
 21
-7.6606398669
 31
0.0
  0
LINE
  5
8F
330
1F
100
AcDbEntity
  8
0
  6
Continuous
 62
     7
370
    25
100
AcDbLine
 10
259.6523855846
 20
144.3393601331
 30
0.0
 11
259.6523855846
 21
67.3393601331
 31
0.0
  0
LINE
  5
90
330
1F
100
AcDbEntity
  8
0
  6
Continuous
 62
     7
370
    25
100
AcDbLine
 10
259.6523855846
 20
221.3393601331
 30
0.0
 11
259.6523855846
 21
144.3393601331
 31
0.0
  0
LINE
  5
91
330
1F
100
AcDbEntity
  8
0
  6
Continuous
 62
     1
370
    25
100
AcDbLine
 10
107.6523855846
 20
66.3393601331
 30
0.0
 11
184.6523855846
 21
66.3393601331
 31
0.0
  0
LINE
  5
92
330
1F
100
AcDbEntity
  8
0
  6
Continuous
 62
     1
370
    25
100
AcDbLine
 10
30.6523855846
 20
66.3393601331
 30
0.0
 11
107.6523855846
 21
66.3393601331
 31
0.0
  0
LINE
  5
93
330
1F
100
AcDbEntity
  8
0
  6
Continuous
 62
     1
370
    25
100
AcDbLine
 10
185.6523855846
 20
144.3393601331
 30
0.0
 11
185.6523855846
 21
67.3393601331
 31
0.0
  0
LINE
  5
94
330
1F
100
AcDbEntity
  8
0
  6
Continuous
 62
     1
370
    25
100
AcDbLine
 10
185.6523855846
 20
221.3393601331
 30
0.0
 11
185.6523855846
 21
144.3393601331
 31
0.0
  0
LINE
  5
95
330
1F
100
AcDbEntity
  8
0
  6
Continuous
 62
     7
370
    25
100
AcDbLine
 10
-260.0307522403
 20
151.3393601331
 30
0.0
 11
-275.2491603495
 21
151.3393601331
 31
0.0
  0
LINE
  5
96
330
1F
100
AcDbEntity
  8
0
  6
Continuous
 62
     7
370
    25
100
AcDbLine
 10
-275.2491603495
 20
137.3393601331
 30
0.0
 11
-260.0383358902
 21
137.3393601331
 31
0.0
  0
LINE
  5
97
330
1F
100
AcDbEntity
  8
0
  6
Continuous
 62
     7
370
    25
100
AcDbLine
 10
-260.3491603495
 20
137.3393601331
 30
0.0
 11
-260.3491603495
 21
66.3393601331
 31
0.0
  0
LINE
  5
98
330
1F
100
AcDbEntity
  8
0
  6
Continuous
 62
     7
370
    25
100
AcDbLine
 10
-106.3491603495
 20
66.3393601331
 30
0.0
 11
-106.3491603495
 21
144.3393601331
 31
0.0
  0
LINE
  5
99
330
1F
100
AcDbEntity
  8
0
  6
Continuous
 62
     7
370
    25
100
AcDbLine
 10
-260.3491603495
 20
-4.6606398669
 30
0.0
 11
-260.3491603495
 21
-7.6606398669
 31
0.0
  0
LINE
  5
9A
330
1F
100
AcDbEntity
  8
0
  6
Continuous
 62
     7
370
    25
100
AcDbLine
 10
-260.3491603495
 20
66.3393601331
 30
0.0
 11
-260.3491603495
 21
9.2524840678
 31
0.0
  0
LINE
  5
9B
330
1F
100
AcDbEntity
  8
0
  6
Continuous
 62
     7
370
    25
100
AcDbLine
 10
-106.3491603495
 20
-7.6606398669
 30
0.0
 11
-106.3491603495
 21
66.3393601331
 31
0.0
  0
LINE
  5
9C
330
1F
100
AcDbEntity
  8
0
  6
Continuous
 62
     7
370
    25
100
AcDbLine
 10
-260.3413650321
 20
9.3393601331
 30
0.0
 11
-275.2491603495
 21
9.3393601331
 31
0.0
  0
LINE
  5
9D
330
1F
100
AcDbEntity
  8
0
  6
Continuous
 62
     7
370
    25
100
AcDbLine
 10
-275.2491603495
 20
-4.6606398669
 30
0.0
 11
-260.3491603495
 21
-4.6606398669
 31
0.0
  0
CIRCLE
  5
9E
330
1F
100
AcDbEntity
  8
0
  6
Continuous
 62
     7
370
    25
100
AcDbCircle
 10
-183.3491603495
 20
144.3393601331
 30
0.0
 40
77.0
  0
CIRCLE
  5
9F
330
1F
100
AcDbEntity
  8
0
  6
Continuous
 62
     7
370
    25
100
AcDbCircle
 10
-183.3491603495
 20
144.3393601331
 30
0.0
 40
62.5
  0
LINE
  5
A0
330
1F
100
AcDbEntity
  8
0
  6
Continuous
 62
     7
370
    25
100
AcDbLine
 10
-275.2491603495
 20
151.3393601331
 30
0.0
 11
-275.2491603495
 21
137.3393601331
 31
0.0
  0
SPLINE
  5
A1
330
1F
100
AcDbEntity
  8
0
  6
Continuous
 62
     7
370
    25
100
AcDbSpline
210
0.0
220
0.0
230
1.0
 70
     8
 71
     3
 72
    17
 73
    13
 74
     0
 42
0.00000001
 43
0.00000001
 40
0.0
 40
0.0
 40
0.0
 40
0.0
 40
0.1070696562225399
 40
0.214128693120635
 40
0.3214637409910167
 40
0.4289836087323231
 40
0.5362019175191356
 40
0.6431026724011395
 40
0.750165358623634
 40
0.8576161441889608
 40
0.9650770975366115
 40
1.0
 40
1.0
 40
1.0
 40
1.0
 10
-260.3491603494858
 20
-4.660639866860931
 30
0.0
 10
-260.3419560409027
 20
-4.58357094661916
 30
0.0
 10
-260.3275481382702
 20
-4.429440749943378
 30
0.0
 10
-260.2272962006823
 20
-3.228342863683523
 30
0.0
 10
-260.1154254461601
 20
-1.456900188546349
 30
0.0
 10
-260.034550134559
 20
0.7596927265694497
 30
0.0
 10
-260.022307344419
 20
3.149549520789427
 30
0.0
 10
-260.0828352077511
 20
5.440975862451902
 30
0.0
 10
-260.1911956039647
 20
7.399235209464707
 30
0.0
 10
-260.294430509631
 20
8.737569438245767
 30
0.0
 10
-260.3524426106468
 20
9.375955067091203
 30
0.0
 10
-260.3435253720994
 20
9.27680330812929
 30
0.0
 10
-260.3413382150636
 20
9.252484067808284
 30
0.0
  0
LINE
  5
A2
330
1F
100
AcDbEntity
  8
0
  6
Continuous
 62
     7
370
    25
100
AcDbLine
 10
-260.3491603495
 20
-7.6606398669
 30
0.0
 11
-106.3491603495
 21
-7.6606398669
 31
0.0
  0
LINE
  5
A3
330
1F
100
AcDbEntity
  8
0
  6
Continuous
 62
     7
370
    25
100
AcDbLine
 10
-275.2491603495
 20
9.3393601331
 30
0.0
 11
-275.2491603495
 21
-4.6606398669
 31
0.0
  0
LINE
  5
A4
330
1F
100
AcDbEntity
  8
0
  6
Continuous
 62
     1
370
    25
100
AcDbLine
 10
-260.3491603495
 20
66.3393601331
 30
0.0
 11
-106.3491603495
 21
66.3393601331
 31
0.0
  0
INSERT
  5
B0
330
1F
100
AcDbEntity
  8
FORMAT
 62
     7
100
AcDbBlockReference
  2
SW_CENTERMARKSYMBOL_0
 10
-183.3491603495
 20
144.3393601331
 30
0.0
  0
LINE
  5
B1
330
1F
100
AcDbEntity
  8
0
  6
Continuous
 62
     7
370
    25
100
AcDbLine
 10
114.6523855846
 20
473.5069611825
 30
0.0
 11
114.6523855846
 21
488.7177856418
 31
0.0
  0
LINE
  5
B2
330
1F
100
AcDbEntity
  8
0
  6
Continuous
 62
     7
370
    25
100
AcDbLine
 10
100.6523855846
 20
488.7177856418
 30
0.0
 11
100.6523855846
 21
473.4993775327
 31
0.0
  0
LINE
  5
B3
330
1F
100
AcDbEntity
  8
0
  6
Continuous
 62
     7
370
    25
100
AcDbLine
 10
185.6523855846
 20
473.8177856418
 30
0.0
 11
114.6523855846
 21
473.8177856418
 31
0.0
  0
LINE
  5
B4
330
1F
100
AcDbEntity
  8
0
  6
Continuous
 62
     7
370
    25
100
AcDbLine
 10
107.6523855846
 20
319.8177856418
 30
0.0
 11
185.6523855846
 21
319.8177856418
 31
0.0
  0
LINE
  5
B5
330
1F
100
AcDbEntity
  8
0
  6
Continuous
 62
     7
370
    25
100
AcDbLine
 10
242.6523855846
 20
473.8177856418
 30
0.0
 11
185.6523855846
 21
473.8177856418
 31
0.0
  0
LINE
  5
B6
330
1F
100
AcDbEntity
  8
0
  6
Continuous
 62
     7
370
    25
100
AcDbLine
 10
259.6523855846
 20
473.8177856418
 30
0.0
 11
256.5655095193
 21
473.8177856418
 31
0.0
  0
LINE
  5
B7
330
1F
100
AcDbEntity
  8
0
  6
Continuous
 62
     7
370
    25
100
AcDbLine
 10
185.6523855846
 20
319.8177856418
 30
0.0
 11
259.6523855846
 21
319.8177856418
 31
0.0
  0
LINE
  5
B8
330
1F
100
AcDbEntity
  8
0
  6
Continuous
 62
     7
370
    25
100
AcDbLine
 10
256.6523855846
 20
473.8099903245
 30
0.0
 11
256.6523855846
 21
488.7177856418
 31
0.0
  0
LINE
  5
B9
330
1F
100
AcDbEntity
  8
0
  6
Continuous
 62
     7
370
    25
100
AcDbLine
 10
242.6523855846
 20
488.7177856418
 30
0.0
 11
242.6523855846
 21
473.8177856418
 31
0.0
  0
CIRCLE
  5
BA
330
1F
100
AcDbEntity
  8
0
  6
Continuous
 62
     7
370
    25
100
AcDbCircle
 10
107.6523855846
 20
396.8177856418
 30
0.0
 40
62.5
  0
CIRCLE
  5
BB
330
1F
100
AcDbEntity
  8
0
  6
Continuous
 62
     7
370
    25
100
AcDbCircle
 10
107.6523855846
 20
396.8177856418
 30
0.0
 40
77.00000000000006
  0
LINE
  5
BC
330
1F
100
AcDbEntity
  8
0
  6
Continuous
 62
     7
370
    25
100
AcDbLine
 10
114.6523855846
 20
488.7177856418
 30
0.0
 11
100.6523855846
 21
488.7177856418
 31
0.0
  0
SPLINE
  5
BD
330
1F
100
AcDbEntity
  8
0
  6
Continuous
 62
     7
370
    25
100
AcDbSpline
210
0.0
220
0.0
230
1.0
 70
     8
 71
     3
 72
    17
 73
    13
 74
     0
 42
0.00000001
 43
0.00000001
 40
0.0
 40
0.0
 40
0.0
 40
0.0
 40
0.1070696562225401
 40
0.2141286931206351
 40
0.3214637409910163
 40
0.4289836087323242
 40
0.5362019175191362
 40
0.643102672401139
 40
0.7501653586236345
 40
0.8576161441889625
 40
0.9650770975366117
 40
1.0
 40
1.0
 40
1.0
 40
1.0
 10
242.6523855846227
 20
473.8177856418401
 30
0.0
 10
242.7294545048644
 20
473.810581333257
 30
0.0
 10
242.8835847015402
 20
473.7961734306246
 30
0.0
 10
244.0846825878001
 20
473.6959214930366
 30
0.0
 10
245.8561252629372
 20
473.5840507385143
 30
0.0
 10
248.0727181780531
 20
473.5031754269133
 30
0.0
 10
250.462574972273
 20
473.4909326367733
 30
0.0
 10
252.7540013139355
 20
473.5514605001054
 30
0.0
 10
254.7122606609483
 20
473.6598208963191
 30
0.0
 10
256.0505948897294
 20
473.7630558019852
 30
0.0
 10
256.6889805185747
 20
473.8210679030011
 30
0.0
 10
256.5898287596129
 20
473.8121506644538
 30
0.0
 10
256.5655095192919
 20
473.8099635074178
 30
0.0
  0
LINE
  5
BE
330
1F
100
AcDbEntity
  8
0
  6
Continuous
 62
     7
370
    25
100
AcDbLine
 10
259.6523855846
 20
473.8177856418
 30
0.0
 11
259.6523855846
 21
319.8177856418
 31
0.0
  0
LINE
  5
BF
330
1F
100
AcDbEntity
  8
0
  6
Continuous
 62
     7
370
    25
100
AcDbLine
 10
256.6523855846
 20
488.7177856418
 30
0.0
 11
242.6523855846
 21
488.7177856418
 31
0.0
  0
LINE
  5
C0
330
1F
100
AcDbEntity
  8
0
  6
Continuous
 62
     1
370
    25
100
AcDbLine
 10
185.6523855846
 20
473.8177856418
 30
0.0
 11
185.6523855846
 21
319.8177856418
 31
0.0
  0
INSERT
  5
CC
330
1F
100
AcDbEntity
  8
FORMAT
 62
     7
100
AcDbBlockReference
  2
SW_CENTERMARKSYMBOL_1
 10
107.6523855846
 20
396.8177856418
 30
0.0
  0
LINE
  5
CD
330
1F
100
AcDbEntity
  8
0
  6
Continuous
 62
     7
370
    25
100
AcDbLine
 10
415.261088444
 20
66.3393601331
 30
0.0
 11
415.261088444
 21
-7.6606398669
 31
0.0
  0
LINE
  5
CE
330
1F
100
AcDbEntity
  8
0
  6
Continuous
 62
     7
370
    25
100
AcDbLine
 10
569.261088444
 20
9.2524840678
 30
0.0
 11
569.261088444
 21
66.3393601331
 31
0.0
  0
LINE
  5
CF
330
1F
100
AcDbEntity
  8
0
  6
Continuous
 62
     7
370
    25
100
AcDbLine
 10
569.261088444
 20
-7.6606398669
 30
0.0
 11
569.261088444
 21
-4.6606398669
 31
0.0
  0
LINE
  5
D0
330
1F
100
AcDbEntity
  8
0
  6
Continuous
 62
     7
370
    25
100
AcDbLine
 10
569.261088444
 20
66.3393601331
 30
0.0
 11
569.261088444
 21
144.3393601331
 31
0.0
  0
LINE
  5
D1
330
1F
100
AcDbEntity
  8
0
  6
Continuous
 62
     7
370
    25
100
AcDbLine
 10
415.261088444
 20
144.3393601331
 30
0.0
 11
415.261088444
 21
66.3393601331
 31
0.0
  0
LINE
  5
D2
330
1F
100
AcDbEntity
  8
0
  6
Continuous
 62
     7
370
    25
100
AcDbLine
 10
569.261088444
 20
-4.6606398669
 30
0.0
 11
584.161088444
 21
-4.6606398669
 31
0.0
  0
LINE
  5
D3
330
1F
100
AcDbEntity
  8
0
  6
Continuous
 62
     7
370
    25
100
AcDbLine
 10
584.161088444
 20
9.3393601331
 30
0.0
 11
569.261088444
 21
9.3393601331
 31
0.0
  0
LINE
  5
D4
330
1F
100
AcDbEntity
  8
0
  6
Continuous
 62
     7
370
    25
100
AcDbLine
 10
569.261088444
 20
137.3393601331
 30
0.0
 11
584.161088444
 21
137.3393601331
 31
0.0
  0
LINE
  5
D5
330
1F
100
AcDbEntity
  8
0
  6
Continuous
 62
     7
370
    25
100
AcDbLine
 10
584.161088444
 20
151.3393601331
 30
0.0
 11
568.9426803348
 21
151.3393601331
 31
0.0
  0
LINE
  5
D6
330
1F
100
AcDbEntity
  8
0
  6
Continuous
 62
     7
370
    25
100
AcDbLine
 10
415.261088444
 20
-7.6606398669
 30
0.0
 11
569.261088444
 21
-7.6606398669
 31
0.0
  0
ARC
  5
D7
330
1F
100
AcDbEntity
  8
0
  6
Continuous
 62
     7
370
    25
100
AcDbCircle
 10
646.0891383416
 20
2.3391180017
 30
0.0
 40
77.14626278233946
100
AcDbArc
 50
174.8586130728
 51
185.2058117457
  0
ARC
  5
D8
330
1F
100
AcDbEntity
  8
0
  6
Continuous
 62
     7
370
    25
100
AcDbCircle
 10
492.261088444
 20
144.3393601331
 30
0.0
 40
77.0
100
AcDbArc
 50
0.0
 51
180.0
  0
LINE
  5
D9
330
1F
100
AcDbEntity
  8
0
  6
Continuous
 62
     7
370
    25
100
AcDbLine
 10
584.161088444
 20
2.3393601331
 30
0.0
 11
584.161088444
 21
9.3393601331
 31
0.0
  0
LINE
  5
DA
330
1F
100
AcDbEntity
  8
0
  6
Continuous
 62
     7
370
    25
100
AcDbLine
 10
584.161088444
 20
-4.6606398669
 30
0.0
 11
584.161088444
 21
2.3393601331
 31
0.0
  0
LINE
  5
DB
330
1F
100
AcDbEntity
  8
0
  6
Continuous
 62
     7
370
    25
100
AcDbLine
 10
584.161088444
 20
144.3393601331
 30
0.0
 11
584.161088444
 21
151.3393601331
 31
0.0
  0
LINE
  5
DC
330
1F
100
AcDbEntity
  8
0
  6
Continuous
 62
     7
370
    25
100
AcDbLine
 10
584.161088444
 20
137.3393601331
 30
0.0
 11
584.161088444
 21
144.3393601331
 31
0.0
  0
LINE
  5
DD
330
1F
100
AcDbEntity
  8
0
  6
Continuous
 62
     1
370
    25
100
AcDbLine
 10
415.261088444
 20
66.3393601331
 30
0.0
 11
569.261088444
 21
66.3393601331
 31
0.0
  0
INSERT
  5
E9
330
1F
100
AcDbEntity
  8
FORMAT
 62
     7
100
AcDbBlockReference
  2
SW_CENTERMARKSYMBOL_2
 10
492.261088444
 20
144.3393601331
 30
0.0
  0
LINE
  5
EA
330
1F
100
AcDbEntity
  8
0
  6
Continuous
 62
     7
370
    25
100
AcDbLine
 10
107.6523855846
 20
-324.0062363203
 30
0.0
 11
185.6523855846
 21
-324.0062363203
 31
0.0
  0
LINE
  5
EB
330
1F
100
AcDbEntity
  8
0
  6
Continuous
 62
     7
370
    25
100
AcDbLine
 10
185.6523855846
 20
-170.0062363203
 30
0.0
 11
107.6523855846
 21
-170.0062363203
 31
0.0
  0
LINE
  5
EC
330
1F
100
AcDbEntity
  8
0
  6
Continuous
 62
     7
370
    25
100
AcDbLine
 10
259.6523855846
 20
-170.0062363203
 30
0.0
 11
185.6523855846
 21
-170.0062363203
 31
0.0
  0
LINE
  5
ED
330
1F
100
AcDbEntity
  8
0
  6
Continuous
 62
     7
370
    25
100
AcDbLine
 10
256.5655095193
 20
-324.0062363203
 30
0.0
 11
259.6523855846
 21
-324.0062363203
 31
0.0
  0
LINE
  5
EE
330
1F
100
AcDbEntity
  8
0
  6
Continuous
 62
     7
370
    25
100
AcDbLine
 10
185.6523855846
 20
-324.0062363203
 30
0.0
 11
242.6523855846
 21
-324.0062363203
 31
0.0
  0
LINE
  5
EF
330
1F
100
AcDbEntity
  8
0
  6
Continuous
 62
     7
370
    25
100
AcDbLine
 10
242.6523855846
 20
-324.0062363203
 30
0.0
 11
242.6523855846
 21
-338.9062363203
 31
0.0
  0
LINE
  5
F0
330
1F
100
AcDbEntity
  8
0
  6
Continuous
 62
     7
370
    25
100
AcDbLine
 10
256.6523855846
 20
-338.9062363203
 30
0.0
 11
256.6523855846
 21
-324.0062363203
 31
0.0
  0
LINE
  5
F1
330
1F
100
AcDbEntity
  8
0
  6
Continuous
 62
     7
370
    25
100
AcDbLine
 10
100.6523855846
 20
-323.6878282111
 30
0.0
 11
100.6523855846
 21
-338.9062363203
 31
0.0
  0
LINE
  5
F2
330
1F
100
AcDbEntity
  8
0
  6
Continuous
 62
     7
370
    25
100
AcDbLine
 10
114.6523855846
 20
-338.9062363203
 30
0.0
 11
114.6523855846
 21
-324.0062363203
 31
0.0
  0
ARC
  5
F3
330
1F
100
AcDbEntity
  8
0
  6
Continuous
 62
     7
370
    25
100
AcDbCircle
 10
107.6523855846
 20
-247.0062363203
 30
0.0
 40
76.99999999999997
100
AcDbArc
 50
90.0
 51
270.0
  0
ARC
  5
F4
330
1F
100
AcDbEntity
  8
0
  6
Continuous
 62
     7
370
    25
100
AcDbCircle
 10
249.6521434531
 20
-400.8342862179
 30
0.0
 40
77.14626278232436
100
AcDbArc
 50
84.8586130728
 51
95.2058117457
  0
LINE
  5
F5
330
1F
100
AcDbEntity
  8
0
  6
Continuous
 62
     7
370
    25
100
AcDbLine
 10
259.6523855846
 20
-170.0062363203
 30
0.0
 11
259.6523855846
 21
-324.0062363203
 31
0.0
  0
LINE
  5
F6
330
1F
100
AcDbEntity
  8
0
  6
Continuous
 62
     7
370
    25
100
AcDbLine
 10
242.6523855846
 20
-338.9062363203
 30
0.0
 11
256.6523855846
 21
-338.9062363203
 31
0.0
  0
LINE
  5
F7
330
1F
100
AcDbEntity
  8
0
  6
Continuous
 62
     7
370
    25
100
AcDbLine
 10
100.6523855846
 20
-338.9062363203
 30
0.0
 11
114.6523855846
 21
-338.9062363203
 31
0.0
  0
LINE
  5
F8
330
1F
100
AcDbEntity
  8
0
  6
Continuous
 62
     1
370
    25
100
AcDbLine
 10
185.6523855846
 20
-170.0062363203
 30
0.0
 11
185.6523855846
 21
-324.0062363203
 31
0.0
  0
INSERT
  5
104
330
1F
100
AcDbEntity
  8
FORMAT
 62
     7
100
AcDbBlockReference
  2
SW_CENTERMARKSYMBOL_3
 10
107.6523855846
 20
-247.0062363203
 30
0.0
  0
LINE
  5
105
330
1F
100
AcDbEntity
  8
0
  6
Continuous
 62
     7
370
    25
100
AcDbLine
 10
517.9815135558
 20
-70.4609407444
 30
0.0
 11
465.655611748
 21
-100.6680408818
 31
0.0
  0
LINE
  5
106
330
1F
100
AcDbEntity
  8
0
  6
Continuous
 62
     7
370
    25
100
AcDbLine
 10
542.649354161
 20
-234.0395656885
 30
0.0
 11
594.9752559688
 21
-203.832465551
 31
0.0
  0
LINE
  5
107
330
1F
100
AcDbEntity
  8
0
  6
Continuous
 62
     7
370
    25
100
AcDbLine
 10
371.998154022
 20
-262.8839029733
 30
0.0
 11
371.998154022
 21
-323.3079230529
 31
0.0
  0
LINE
  5
108
330
1F
100
AcDbEntity
  8
0
  6
Continuous
 62
     7
370
    25
100
AcDbLine
 10
525.998154022
 20
-323.3079230529
 30
0.0
 11
525.998154022
 21
-262.8839029733
 31
0.0
  0
LINE
  5
109
330
1F
100
AcDbEntity
  8
0
  6
Continuous
 62
     7
370
    25
100
AcDbLine
 10
498.5729074734
 20
-103.7999789369
 30
0.0
 11
487.9239193236
 21
-97.6524489319
 31
0.0
  0
LINE
  5
10A
330
1F
100
AcDbEntity
  8
0
  6
Continuous
 62
     7
370
    25
100
AcDbLine
 10
480.9244881952
 20
-109.7771330052
 30
0.0
 11
491.5725469613
 21
-115.9241264885
 31
0.0
  0
LINE
  5
10B
330
1F
100
AcDbEntity
  8
0
  6
Continuous
 62
     7
370
    25
100
AcDbLine
 10
398.1632253463
 20
-277.7134504371
 30
0.0
 11
387.5147563951
 21
-271.5662201591
 31
0.0
  0
LINE
  5
10C
330
1F
100
AcDbEntity
  8
0
  6
Continuous
 62
     7
370
    25
100
AcDbLine
 10
380.5153252667
 20
-283.6909042324
 30
0.0
 11
391.1643143613
 21
-289.8384347829
 31
0.0
  0
SPLINE
  5
10D
330
1F
100
AcDbEntity
  8
0
  6
Continuous
 62
     7
370
    25
100
AcDbSpline
210
0.0
220
0.0
230
1.0
 70
     8
 71
     3
 72
    35
 73
    31
 74
     0
 42
0.00000001
 43
0.00000001
 40
0.0
 40
0.0
 40
0.0
 40
0.0
 40
0.0360253451211323
 40
0.0728566842727469
 40
0.1087555817611239
 40
0.1439875302465246
 40
0.1787916874243584
 40
0.2133745933433058
 40
0.2479070876647379
 40
0.2825222884362832
 40
0.3172873885655469
 40
0.3522651482869321
 40
0.3874893665199357
 40
0.422962145595298
 40
0.4586590381391888
 40
0.4945352364063338
 40
0.530532580566948
 40
0.5665792891210815
 40
0.6025997272547943
 40
0.6385455571996329
 40
0.6743891916973036
 40
0.7101310316438461
 40
0.7458057988790547
 40
0.78148752852317
 40
0.8172925539854049
 40
0.8533306318383582
 40
0.8897881754251352
 40
0.9268915627253276
 40
0.9649026587578999
 40
0.9999999999999999
 40
0.9999999999999999
 40
0.9999999999999999
 40
0.9999999999999999
 10
525.9980420661252
 20
-262.9240725974543
 30
0.0
 10
525.998380934263
 20
-262.9085365978058
 30
0.0
 10
525.9990662520256
 20
-262.8771170120266
 30
0.0
 10
526.0222505395805
 20
-262.5668434390413
 30
0.0
 10
526.0814999939009
 20
-262.0675203124701
 30
0.0
 10
526.190290405611
 20
-261.3743345675304
 30
0.0
 10
526.3602689413013
 20
-260.5037368751599
 30
0.0
 10
526.6017841685999
 20
-259.4665231020028
 30
0.0
 10
526.9234974395961
 20
-258.2768256457513
 30
0.0
 10
527.33211456037
 20
-256.9505725584625
 30
0.0
 10
527.8321049176196
 20
-255.5060433809648
 30
0.0
 10
528.4254582047487
 20
-253.963591961357
 30
0.0
 10
529.1116763803278
 20
-252.3450568345509
 30
0.0
 10
529.8874496046926
 20
-250.6739265689594
 30
0.0
 10
530.7464847675194
 20
-248.9750395949244
 30
0.0
 10
531.6794754930231
 20
-247.2740345747582
 30
0.0
 10
532.6741240702219
 20
-245.5968103318487
 30
0.0
 10
533.7152873153058
 20
-243.9688669944497
 30
0.0
 10
534.7854846217878
 20
-242.4142396971566
 30
0.0
 10
535.8655062718947
 20
-240.9546114192038
 30
0.0
 10
536.9350602427317
 20
-239.6086292153645
 30
0.0
 10
537.9731828141391
 20
-238.3916726116237
 30
0.0
 10
538.9587726696441
 20
-237.3155639362493
 30
0.0
 10
539.870987804182
 20
-236.3884971130976
 30
0.0
 10
540.689337606283
 20
-235.6153765250415
 30
0.0
 10
541.3937583099088
 20
-234.9978128469541
 30
0.0
 10
541.9671135463842
 20
-234.5329095076411
 30
0.0
 10
542.3866676308357
 20
-234.2189040400928
 30
0.0
 10
542.6471052772749
 20
-234.0417839197489
 30
0.0
 10
542.6696896542369
 20
-234.0282006673793
 30
0.0
 10
542.6805317897622
 20
-234.0216797231304
 30
0.0
  0
SPLINE
  5
10E
330
1F
100
AcDbEntity
  8
0
  6
Continuous
 62
     7
370
    25
100
AcDbSpline
210
0.0
220
0.0
230
1.0
 70
     8
 71
     3
 72
    41
 73
    37
 74
     0
 42
0.00000001
 43
0.00000001
 40
0.0
 40
0.0
 40
0.0
 40
0.0
 40
0.0194134796681582
 40
0.0493524041855421
 40
0.0793581840359789
 40
0.1094999046217012
 40
0.1397300459574266
 40
0.1700017485006738
 40
0.2002699710043505
 40
0.2305069337123767
 40
0.2606927750547873
 40
0.2908153157803847
 40
0.3208693085536516
 40
0.3508554509995794
 40
0.3807793369116527
 40
0.4106504587637036
 40
0.44048132014639
 40
0.470286676375368
 40
0.500082895195312
 40
0.5298874140701695
 40
0.559715244501137
 40
0.5895816072312772
 40
0.6195045539017265
 40
0.6495014808329301
 40
0.6795885691268755
 40
0.7097801130600203
 40
0.7400877023733123
 40
0.7705192356647594
 40
0.8010777643771122
 40
0.8317602054454575
 40
0.8625560193065078
 40
0.893446026975263
 40
0.9244016220519589
 40
0.9553726758401075
 40
0.9863074854850724
 40
1.0
 40
1.0
 40
1.0
 40
1.0
 10
465.6556117480265
 20
-100.6680408818486
 30
0.0
 10
464.6009924267235
 20
-101.2870887142832
 30
0.0
 10
461.9199687309975
 20
-102.8608147726059
 30
0.0
 10
457.6890417630598
 20
-105.5594129869663
 30
0.0
 10
452.974922407801
 20
-108.7951681521398
 30
0.0
 10
448.343688628104
 20
-112.2228655834361
 30
0.0
 10
443.7982688886343
 20
-115.8333282832059
 30
0.0
 10
439.3493415458931
 20
-119.6170299069257
 30
0.0
 10
435.0056583634441
 20
-123.5629418842671
 30
0.0
 10
430.7745738216215
 20
-127.6607256260405
 30
0.0
 10
426.6617320768478
 20
-131.9008247720804
 30
0.0
 10
422.6717373189923
 20
-136.2743437682722
 30
0.0
 10
418.808328926568
 20
-140.773095527936
 30
0.0
 10
415.0745936719061
 20
-145.3896196800429
 30
0.0
 10
411.473164812957
 20
-150.1171444333437
 30
0.0
 10
408.006400227918
 20
-154.9495250989099
 30
0.0
 10
404.6765324442913
 20
-159.8811700540626
 30
0.0
 10
401.4857912870901
 20
-164.9069643241486
 30
0.0
 10
398.4365025706185
 20
-170.0221951413992
 30
0.0
 10
395.5312657579838
 20
-175.2223051981336
 30
0.0
 10
392.7729898674403
 20
-180.5028125191203
 30
0.0
 10
390.1648278182823
 20
-185.8594177024916
 30
0.0
 10
387.7101449656429
 20
-191.2881275428585
 30
0.0
 10
385.4125913512444
 20
-196.7851864390472
 30
0.0
 10
383.2762362751425
 20
-202.3467952552946
 30
0.0
 10
381.3056041853048
 20
-207.9689829085769
 30
0.0
 10
379.5056994241283
 20
-213.6474475392561
 30
0.0
 10
377.8820161759672
 20
-219.3773626341106
 30
0.0
 10
376.4405114740076
 20
-225.1531495175625
 30
0.0
 10
375.1875741717682
 20
-230.9682189556871
 30
0.0
 10
374.1298046737452
 20
-236.8147190829785
 30
0.0
 10
373.2742357664577
 20
-242.6832537343563
 30
0.0
 10
372.6266644018872
 20
-248.5621158768321
 30
0.0
 10
372.1967642009197
 20
-254.437094599465
 30
0.0
 10
372.0173945624121
 20
-259.2110137589664
 30
0.0
 10
372.002671376356
 20
-262.0215705317131
 30
0.0
 10
371.9981540219644
 20
-262.8839029733352
 30
0.0
  0
LWPOLYLINE
  5
10F
330
1F
100
AcDbEntity
  8
0
  6
Continuous
 62
     7
370
    25
100
AcDbPolyline
 90
      111
 70
   128
 43
0.0
 10
502.031162611
 20
-105.7149908425
 10
502.1199603718
 20
-109.3556341845
 10
502.3860640145
 20
-113.0869262171
 10
502.8286055642
 20
-116.896696241
 10
503.4461415425
 20
-120.7725175786
 10
504.2366576753
 20
-124.701748106
 10
505.1975754632
 20
-128.67157149
 10
506.3257605923
 20
-132.669038992
 10
507.6175331571
 20
-136.6811117037
 10
509.0686796639
 20
-140.694703078
 10
510.6744667746
 20
-144.6967216139
 10
512.4296567454
 20
-148.6741135589
 10
514.3285245112
 20
-152.6139054871
 10
516.3648763603
 20
-156.5032466162
 10
518.5320701361
 20
-160.3294507238
 10
520.823036903
 20
-164.0800375274
 10
523.2303040035
 20
-167.7427733924
 10
525.7460194328
 20
-171.3057112357
 10
528.3619774501
 20
-174.7572294946
 10
531.0696453439
 20
-178.0860700341
 10
533.8601912644
 20
-181.2813748681
 10
536.7245130309
 20
-184.3327215765
 10
539.653267821
 20
-187.2301573004
 10
542.6369026455
 20
-189.9642312069
 10
545.6656855077
 20
-192.5260253151
 10
548.7297371474
 20
-194.9071835851
 10
551.8190632651
 20
-197.0999391735
 10
554.923587121
 20
-199.0971397675
 10
558.0331824036
 20
-200.8922709137
 10
561.1377062596
 20
-202.4794772676
 10
564.2270323772
 20
-203.8535816918
 10
567.2910840169
 20
-205.0101021434
 10
570.3198668791
 20
-205.945266293
 10
573.3035017036
 20
-206.6560238296
 10
576.2322564938
 20
-207.1400564098
 10
579.0965782602
 20
-207.39578522
 10
581.8871241808
 20
-207.4223761258
 10
584.5947920746
 20
-207.2197423934
 10
587.2107500918
 20
-206.7885449717
 10
589.7264655211
 20
-206.1301903373
 10
592.1337326216
 20
-205.246825906
 10
594.4246993885
 20
-204.1413330291
 10
596.5918931643
 20
-202.8173175944
 10
598.6282450134
 20
-201.2790982652
 10
600.5271127793
 20
-199.5316923933
 10
602.28230275
 20
-197.5807996532
 10
603.8880898607
 20
-195.4327834517
 10
605.3392363676
 20
-193.0946501712
 10
606.6310089323
 20
-190.5740263164
 10
607.7591940614
 20
-187.8791336384
 10
608.7201118494
 20
-185.0187623169
 10
609.5106279822
 20
-182.0022422888
 10
610.1281639604
 20
-178.8394128154
 10
610.5707055102
 20
-175.5405903889
 10
610.8368091528
 20
-172.1165350825
 10
610.9256069137
 20
-168.5784154529
 10
610.8368091528
 20
-164.9377721109
 10
610.5707055102
 20
-161.2064800784
 10
610.1281639604
 20
-157.3967100544
 10
609.5106279822
 20
-153.5208887169
 10
608.7201118494
 20
-149.5916581895
 10
607.7591940614
 20
-145.6218348054
 10
606.6310089323
 20
-141.6243673035
 10
605.3392363676
 20
-137.6122945917
 10
603.8880898607
 20
-133.5987032175
 10
602.28230275
 20
-129.5966846816
 10
600.5271127793
 20
-125.6192927366
 10
598.6282450134
 20
-121.6795008083
 10
596.5918931643
 20
-117.7901596793
 10
594.4246993885
 20
-113.9639555717
 10
592.1337326216
 20
-110.2133687681
 10
589.7264655211
 20
-106.5506329031
 10
587.2107500918
 20
-102.9876950598
 10
584.5947920746
 20
-99.5361768008
 10
581.8871241808
 20
-96.2073362613
 10
579.0965782602
 20
-93.0120314273
 10
576.2322564938
 20
-89.960684719
 10
573.3035017036
 20
-87.063248995
 10
570.3198668791
 20
-84.3291750886
 10
567.2910840169
 20
-81.7673809804
 10
564.2270323772
 20
-79.3862227104
 10
561.1377062596
 20
-77.1934671219
 10
558.0331824036
 20
-75.196266528
 10
554.923587121
 20
-73.4011353817
 10
551.8190632651
 20
-71.8139290279
 10
548.7297371474
 20
-70.4398246037
 10
545.6656855077
 20
-69.2833041521
 10
542.6369026455
 20
-68.3481400024
 10
539.653267821
 20
-67.6373824658
 10
536.7245130309
 20
-67.1533498856
 10
533.8601912644
 20
-66.8976210755
 10
531.0696453439
 20
-66.8710301696
 10
528.3619774501
 20
-67.0736639021
 10
525.7460194328
 20
-67.5048613237
 10
523.2303040035
 20
-68.1632159582
 10
520.823036903
 20
-69.0465803894
 10
518.5320701361
 20
-70.1520732664
 10
516.3648763603
 20
-71.476088701
 10
514.3285245112
 20
-73.0143080302
 10
512.4296567454
 20
-74.7617139022
 10
510.6744667746
 20
-76.7126066422
 10
509.0686796639
 20
-78.8606228437
 10
507.6175331571
 20
-81.1987561242
 10
506.3257605923
 20
-83.7193799791
 10
505.1975754632
 20
-86.4142726571
 10
504.2366576753
 20
-89.2746439785
 10
503.4461415425
 20
-92.2911640066
 10
502.8286055642
 20
-95.4539934801
 10
502.3860640145
 20
-98.7528159065
 10
502.1199603718
 20
-102.1768712129
 10
502.031162611
 20
-105.7149908425
  0
LWPOLYLINE
  5
110
330
1F
100
AcDbEntity
  8
0
  6
Continuous
 62
     7
370
    25
100
AcDbPolyline
 90
      100
 70
   128
 43
0.0
 10
512.2842109382
 20
-111.6339496533
 10
512.3731881081
 20
-108.4485514021
 10
512.6397613384
 20
-105.3787104791
 10
513.0828572326
 20
-102.4367880503
 10
513.7006915999
 20
-99.6346301989
 10
514.4907766396
 20
-96.9835202257
 10
515.4499309578
 20
-94.4941332147
 10
516.5742923788
 20
-92.176493049
 10
517.859333496
 20
-90.0399320473
 10
519.2998799022
 20
-88.0930533868
 10
520.8901310256
 20
-86.3436964607
 10
522.6236834861
 20
-84.7989053119
 10
524.4935568798
 20
-83.4649002692
 10
526.4922218866
 20
-82.3470529
 10
528.6116305879
 20
-81.4498643812
 10
530.8432488728
 20
-80.7769473742
 10
533.1780908022
 20
-80.3310114784
 10
535.6067547917
 20
-80.1138523202
 10
538.1194614685
 20
-80.1263443229
 10
540.7060930498
 20
-80.3684371855
 10
543.3562340831
 20
-80.8391560857
 10
546.0592133858
 20
-81.5366056045
 10
548.8041470143
 20
-82.4579773589
 10
551.5799820895
 20
-83.59956131
 10
554.3755413035
 20
-84.9567607021
 10
557.1795679259
 20
-86.5241105723
 10
559.9807711312
 20
-88.295299756
 10
562.7678714627
 20
-90.2631962992
 10
565.5296462511
 20
-92.4198761773
 10
568.2549748041
 20
-94.7566552016
 10
570.9328831855
 20
-97.2641239876
 10
573.5525884033
 20
-99.9321858437
 10
576.1035418293
 20
-102.7500974262
 10
578.5754716744
 20
-105.706512
 10
580.9584243495
 20
-108.7895251268
 10
583.2428045453
 20
-111.9867226011
 10
585.4194138689
 20
-115.285230437
 10
587.4794878829
 20
-118.6717667076
 10
589.4147313963
 20
-122.1326950266
 10
591.2173518664
 20
-125.6540794573
 10
592.8800907769
 20
-129.2217406273
 10
594.3962528651
 20
-132.8213128243
 10
595.7597330812
 20
-136.4383018415
 10
596.9650411719
 20
-140.0581433407
 10
598.0073237866
 20
-143.6662614979
 10
598.8823840213
 20
-147.2481276946
 10
599.5866983172
 20
-150.7893190199
 10
600.1174306492
 20
-154.2755763462
 10
600.4724439456
 20
-157.6928617456
 10
600.650308693
 20
-161.027415016
 10
600.650308693
 20
-164.2658090882
 10
600.4724439456
 20
-167.3950040924
 10
600.1174306492
 20
-170.4023998646
 10
599.5866983172
 20
-173.2758866835
 10
598.8823840213
 20
-176.0038940318
 10
598.0073237866
 20
-178.5754371869
 10
596.9650411719
 20
-180.980161452
 10
595.7597330812
 20
-183.2083838513
 10
594.3962528651
 20
-185.2511321196
 10
592.8800907769
 20
-187.1001808305
 10
591.2173518664
 20
-188.7480845176
 10
589.4147313963
 20
-190.1882076543
 10
587.4794878829
 20
-191.4147513731
 10
585.4194138689
 20
-192.4227768152
 10
583.2428045453
 20
-193.2082250179
 10
580.9584243495
 20
-193.7679332587
 10
578.5754716744
 20
-194.0996477899
 10
576.1035418293
 20
-194.2020329143
 10
573.5525884033
 20
-194.074676363
 10
570.9328831855
 20
-193.7180909559
 10
568.2549748041
 20
-193.1337125366
 10
565.5296462511
 20
-192.3238941908
 10
562.7678714627
 20
-191.2918967712
 10
559.9807711312
 20
-190.041875767
 10
557.1795679259
 20
-188.5788645716
 10
554.3755413035
 20
-186.9087542149
 10
551.5799820895
 20
-185.0382696418
 10
548.8041470143
 20
-182.9749426334
 10
546.0592133858
 20
-180.7270814794
 10
543.3562340831
 20
-178.3037375233
 10
540.7060930498
 20
-175.7146687158
 10
538.1194614685
 20
-172.9703003234
 10
535.6067547917
 20
-170.0816829488
 10
533.1780908022
 20
-167.0604480348
 10
530.8432488728
 20
-163.9187610279
 10
528.6116305879
 20
-160.6692723931
 10
526.4922218866
 20
-157.325066674
 10
524.4935568798
 20
-153.8996098068
 10
522.6236834861
 20
-150.4066948973
 10
520.8901310256
 20
-146.8603866811
 10
519.2998799022
 20
-143.2749648897
 10
517.859333496
 20
-139.6648667512
 10
516.5742923788
 20
-136.0446288567
 10
515.4499309578
 20
-132.4288286263
 10
514.4907766396
 20
-128.8320256115
 10
513.7006915999
 20
-125.2687028685
 10
513.0828572326
 20
-121.7532086403
 10
512.6397613384
 20
-118.2996985816
 10
512.3731881081
 20
-114.9220787582
 10
512.2842109382
 20
-111.6339496533
  0
SPLINE
  5
111
330
1F
100
AcDbEntity
  8
0
  6
Continuous
 62
     7
370
    25
100
AcDbSpline
210
0.0
220
0.0
230
1.0
 70
     8
 71
     3
 72
    17
 73
    13
 74
     0
 42
0.00000001
 43
0.00000001
 40
0.0
 40
0.0
 40
0.0
 40
0.0
 40
0.071550892481542
 40
0.179071095459517
 40
0.2862897385427642
 40
0.3931908267310995
 40
0.5002538467648138
 40
0.6077049673514173
 40
0.7151662557520444
 40
0.822245112734973
 40
0.9291458366469729
 40
1.0
 40
1.0
 40
1.0
 40
1.0
 10
491.6141314357484
 20
-115.8463955857235
 30
0.0
 10
491.8936349033818
 20
-116.008662327613
 30
0.0
 10
492.593150875831
 20
-116.4147688375256
 30
0.0
 10
494.0744947838451
 20
-116.2343233798145
 30
0.0
 10
495.7613369158562
 20
-115.3915117071818
 30
0.0
 10
497.3437679335955
 20
-113.8814488391286
 30
0.0
 10
498.6436954044344
 20
-111.9137538136936
 30
0.0
 10
499.5447890577743
 20
-109.7116888587644
 30
0.0
 10
499.9709305303425
 20
-107.5323284298924
 30
0.0
 10
499.8681173381495
 20
-105.6669067569213
 30
0.0
 10
499.3830191261644
 20
-104.3632961213576
 30
0.0
 10
498.7703990474475
 20
-104.0144165000461
 30
0.0
 10
498.5262050126245
 20
-103.8753509921476
 30
0.0
  0
LWPOLYLINE
  5
112
330
1F
100
AcDbEntity
  8
0
  6
Continuous
 62
     7
370
    25
100
AcDbPolyline
 90
      111
 70
   128
 43
0.0
 10
394.5509318706
 20
-291.8762107477
 10
397.7480567988
 20
-290.133073525
 10
401.1123488918
 20
-288.498145766
 10
404.6328345279
 20
-286.9767602652
 10
408.2980306147
 20
-285.573879466
 10
412.0959820445
 20
-284.2940792738
 10
416.0143006891
 20
-283.1415341308
 10
420.0402058075
 20
-282.1200033999
 10
424.160565734
 20
-281.2328191019
 10
428.3619407109
 20
-280.4828750476
 10
432.6306267264
 20
-279.8726173985
 10
436.9527002139
 20
-279.4040366884
 10
441.314063468
 20
-279.0786613301
 10
445.7004906284
 20
-278.8975526304
 10
450.0976740813
 20
-278.8613013282
 10
454.4912711283
 20
-278.9700256677
 10
458.8669507691
 20
-279.2233710128
 10
463.2104404461
 20
-279.6205110035
 10
467.5075725989
 20
-280.1601502518
 10
471.7443308755
 20
-280.8405285667
 10
475.9068958511
 20
-281.6594266954
 10
479.9816901039
 20
-282.6141735625
 10
483.9554225019
 20
-283.7016549821
 10
487.8151315561
 20
-284.918323816
 10
491.5482276978
 20
-286.2602115431
 10
495.1425343433
 20
-287.7229412048
 10
498.5863276114
 20
-289.3017416809
 10
501.8683745643
 20
-290.9914632523
 10
504.977969847
 20
-292.7865943985
 10
507.904970606
 20
-294.6812797749
 10
510.6398295731
 20
-296.6693393115
 10
513.173626207
 20
-298.7442883715
 10
515.4980957897
 20
-300.8993589021
 10
517.6056563845
 20
-303.1275215113
 10
519.4894335668
 20
-305.4215083958
 10
521.1432828469
 20
-307.7738370472
 10
522.5618097124
 20
-310.1768346584
 10
523.7403872234
 20
-312.6226631506
 10
524.6751711051
 20
-315.1033447396
 10
525.3631122866
 20
-317.6107879577
 10
525.801966847
 20
-320.1368140463
 10
525.9903033337
 20
-322.6731836334
 10
525.9275074324
 20
-325.2116236086
 10
525.6137839702
 20
-327.7438541082
 10
525.0501562478
 20
-330.2616155228
 10
524.2384627017
 20
-332.7566954378
 10
523.1813509077
 20
-335.2209554213
 10
521.8822689445
 20
-337.6463575694
 10
520.3454541475
 20
-340.0249907243
 10
518.5759192873
 20
-342.3490962792
 10
516.5794362186
 20
-344.6110934847
 10
514.3625170544
 20
-346.8036041762
 10
511.9323929241
 20
-348.9194768396
 10
509.2969903875
 20
-350.9518099379
 10
506.4649055799
 20
-352.893974423
 10
503.4453761733
 20
-354.7396353581
 10
500.2482512451
 20
-356.4827725807
 10
496.8839591522
 20
-358.1177003397
 10
493.3634735161
 20
-359.6390858405
 10
489.6982774292
 20
-361.0419666398
 10
485.9003259994
 20
-362.321766832
 10
481.9820073548
 20
-363.4743119749
 10
477.9561022364
 20
-364.4958427059
 10
473.8357423099
 20
-365.3830270039
 10
469.634367333
 20
-366.1329710582
 10
465.3656813175
 20
-366.7432287072
 10
461.0436078301
 20
-367.2118094174
 10
456.6822445759
 20
-367.5371847757
 10
452.2958174156
 20
-367.7182934754
 10
447.8986339627
 20
-367.7545447776
 10
443.5050369156
 20
-367.6458204381
 10
439.1293572748
 20
-367.392475093
 10
434.7858675978
 20
-366.9953351022
 10
430.488735445
 20
-366.4556958539
 10
426.2519771684
 20
-365.7753175391
 10
422.0894121928
 20
-364.9564194104
 10
418.0146179401
 20
-364.0016725433
 10
414.040885542
 20
-362.9141911236
 10
410.1811764878
 20
-361.6975222898
 10
406.4480803461
 20
-360.3556345626
 10
402.8537737006
 20
-358.8929049009
 10
399.4099804325
 20
-357.3141044249
 10
396.1279334796
 20
-355.6243828535
 10
393.0183381969
 20
-353.8292517072
 10
390.091337438
 20
-351.9345663309
 10
387.3564784708
 20
-349.9465067942
 10
384.8226818369
 20
-347.8715577343
 10
382.4982122542
 20
-345.7164872037
 10
380.3906516595
 20
-343.4883245944
 10
378.5068744772
 20
-341.1943377099
 10
376.853025197
 20
-338.8420090585
 10
375.4344983315
 20
-336.4390114474
 10
374.2559208205
 20
-333.9931829552
 10
373.3211369389
 20
-331.5125013662
 10
372.6331957573
 20
-329.0050581481
 10
372.194341197
 20
-326.4790320594
 10
372.0060047102
 20
-323.9426624723
 10
372.0688006116
 20
-321.4042224972
 10
372.3825240738
 20
-318.8719919975
 10
372.9461517961
 20
-316.354230583
 10
373.7578453422
 20
-313.8591506679
 10
374.8149571363
 20
-311.3948906844
 10
376.1140390995
 20
-308.9694885364
 10
377.6508538964
 20
-306.5908553815
 10
379.4203887566
 20
-304.2667498266
 10
381.4168718253
 20
-302.004752621
 10
383.6337909895
 20
-299.8122419295
 10
386.0639151199
 20
-297.6963692662
 10
388.6993176565
 20
-295.6640361679
 10
391.531402464
 20
-293.7218716828
 10
394.5509318706
 20
-291.8762107477
  0
LWPOLYLINE
  5
113
330
1F
100
AcDbEntity
  8
0
  6
Continuous
 62
     7
370
    25
100
AcDbPolyline
 90
      100
 70
   128
 43
0.0
 10
404.8039801978
 20
-297.7951695584
 10
402.0899896379
 20
-299.4646538131
 10
399.5648816999
 20
-301.2301464978
 10
397.2388241025
 20
-303.0845385964
 10
395.1211830585
 20
-305.0203631265
 10
393.2204855611
 20
-307.0298252059
 10
391.5443850481
 20
-309.1048334401
 10
390.0996305849
 20
-311.2370325033
 10
388.8920396876
 20
-313.4178367824
 10
387.9264748988
 20
-315.6384649482
 10
387.2068242068
 20
-317.889975315
 10
386.7359853912
 20
-320.163301845
 10
386.5158543536
 20
-322.4492906548
 10
386.5473174841
 20
-324.7387368742
 10
386.8302480916
 20
-327.0224217114
 10
387.3635069146
 20
-329.2911495734
 10
388.1449467079
 20
-331.535785094
 10
389.1714208892
 20
-333.7472899181
 10
390.4387962095
 20
-335.9167590964
 10
391.9419693955
 20
-338.0354569422
 10
393.6748876993
 20
-340.0948522069
 10
395.6305732706
 20
-342.0866524328
 10
397.8011512539
 20
-344.0028373433
 10
400.1778814976
 20
-345.8356911381
 10
402.751193748
 20
-347.5778335619
 10
405.5107261849
 20
-349.222249622
 10
408.445367145
 20
-350.7623178353
 10
411.543299865
 20
-352.1918368906
 10
414.7920500633
 20
-353.5050506193
 10
418.1785361693
 20
-354.6966711732
 10
421.6891219989
 20
-355.7619003169
 10
425.3096716618
 20
-356.6964487485
 10
429.0256064826
 20
-357.4965533715
 10
432.8219637031
 20
-358.1589924468
 10
436.6834567327
 20
-358.6810985661
 10
440.5945367019
 20
-359.0607693924
 10
444.539455072
 20
-359.2964761253
 10
448.5023270492
 20
-359.3872696568
 10
452.4671955465
 20
-359.3327843936
 10
456.418095438
 20
-359.1332397284
 10
460.3391178443
 20
-358.7894391574
 10
464.214474192
 20
-358.302767044
 10
468.0285597888
 20
-357.675183045
 10
471.7660166583
 20
-356.9092142198
 10
475.4117953808
 20
-356.0079448544
 10
478.951215692
 20
-354.9750040424
 10
482.3700255956
 20
-353.8145510721
 10
485.6544587508
 20
-352.5312586778
 10
488.7912899044
 20
-351.1302942251
 10
491.7678881446
 20
-349.6172989035
 10
494.5722677608
 20
-347.998365011
 10
497.1931365061
 20
-346.2800114232
 10
499.619941067
 20
-344.4691573433
 10
501.8429095581
 20
-342.5730944416
 10
503.8530908699
 20
-340.5994574943
 10
505.6423907118
 20
-338.5561936407
 10
507.2036042047
 20
-336.4515303833
 10
508.530444893
 20
-334.2939424581
 10
509.6175700575
 20
-332.0921177102
 10
510.4606022288
 20
-329.8549221107
 10
511.056146814
 20
-327.5913640568
 10
511.4018057653
 20
-325.3105580977
 10
511.4961872359
 20
-323.0216882342
 10
511.3389111851
 20
-320.7339709372
 10
510.930610908
 20
-318.4566180369
 10
510.2729304856
 20
-316.1987996297
 10
509.368518165
 20
-313.9696071534
 10
508.2210156954
 20
-311.7780167793
 10
506.8350436641
 20
-309.6328532684
 10
505.2161828914
 20
-307.542754437
 10
503.3709519582
 20
-305.5161363754
 10
501.3067809583
 20
-303.5611595592
 10
499.0319815797
 20
-301.6856959901
 10
496.5557136367
 20
-299.897297498
 10
493.8879481863
 20
-298.2031653323
 10
491.0394273783
 20
-296.6101211654
 10
488.0216212007
 20
-295.1245796239
 10
484.8466812939
 20
-293.7525224593
 10
481.5273920203
 20
-292.4994744614
 10
478.0771189862
 20
-291.3704812124
 10
474.5097552235
 20
-290.3700887695
 10
470.8396652469
 20
-289.5023253601
 10
467.0816272134
 20
-288.7706851611
 10
463.2507734159
 20
-288.1781142295
 10
459.3625293504
 20
-287.7269986391
 10
455.4325516035
 20
-287.4191548732
 10
451.4766648085
 20
-287.2558225101
 10
447.5107979253
 20
-287.2376592315
 10
443.5509201002
 20
-287.3647381746
 10
439.6129763636
 20
-287.6365476372
 10
435.7128234249
 20
-288.0519931386
 10
431.8661658236
 20
-288.6094018265
 10
428.0884926921
 20
-289.3065292127
 10
424.3950153868
 20
-290.1405682113
 10
420.8006062374
 20
-291.1081604416
 10
417.3197386607
 20
-292.2054097513
 10
413.9664288819
 20
-293.4278979046
 10
410.7541794961
 20
-294.7707023732
 10
407.6959250977
 20
-296.2284161574
 10
404.8039801978
 20
-297.7951695584
  0
SPLINE
  5
114
330
1F
100
AcDbEntity
  8
0
  6
Continuous
 62
     7
370
    25
100
AcDbSpline
210
0.0
220
0.0
230
1.0
 70
     8
 71
     3
 72
    14
 73
    10
 74
     0
 42
0.00000001
 43
0.00000001
 40
0.0
 40
0.0
 40
0.0
 40
0.0
 40
0.1427755447520043
 40
0.2855369288175359
 40
0.4286663687666489
 40
0.5720422628343539
 40
0.7150160332236826
 40
0.8575663509435364
 40
1.0
 40
1.0
 40
1.0
 40
1.0
 10
394.5509318706002
 20
-289.4265883120492
 30
0.0
 10
395.1113307814045
 20
-289.046038432755
 30
0.0
 10
396.2320730218332
 20
-288.2849764176578
 30
0.0
 10
397.7820019556181
 20
-286.4911756059761
 30
0.0
 10
398.9880272368215
 20
-284.4403890362024
 30
0.0
 10
399.6940036408168
 20
-282.286830730169
 30
0.0
 10
399.7887816737771
 20
-280.2984909372029
 30
0.0
 10
399.2985749712854
 20
-278.6335317112668
 30
0.0
 10
398.5412168319297
 20
-278.0205570493294
 30
0.0
 10
398.16269278845
 20
-277.7141951902167
 30
0.0
  0
SPLINE
  5
115
330
1F
100
AcDbEntity
  8
0
  6
Continuous
 62
     7
370
    25
100
AcDbSpline
210
0.0
220
0.0
230
1.0
 70
     8
 71
     3
 72
    10
 73
     6
 74
     0
 42
0.00000001
 43
0.00000001
 40
0.0
 40
0.0
 40
0.0
 40
0.0
 40
0.2905889316917326
 40
0.7203119606257945
 40
1.0
 40
1.0
 40
1.0
 40
1.0
 10
391.2050514960447
 20
-289.7619037955041
 30
0.0
 10
391.4551858043369
 20
-289.9044839592112
 30
0.0
 10
392.0752188282267
 20
-290.2579117262923
 30
0.0
 10
393.2844262197216
 20
-290.0639392755222
 30
0.0
 10
394.192801447067
 20
-289.6068123563158
 30
0.0
 10
394.5509318706002
 20
-289.4265883120492
 30
0.0
  0
LWPOLYLINE
  5
116
330
1F
100
AcDbEntity
  8
0
  6
Continuous
 62
     7
370
    25
100
AcDbPolyline
 90
       34
 70
   128
 43
0.0
 10
479.4744562911
 20
-106.57221936
 10
479.5639046761
 20
-105.4388623534
 10
479.8290169333
 20
-104.243192915
 10
480.2602112151
 20
-103.0284256535
 10
480.8419030366
 20
-101.8384654228
 10
481.5530685398
 20
-100.716320486
 10
482.3680043505
 20
-99.7025480849
 10
483.2572565652
 20
-98.8337885954
 10
484.188685292
 20
-98.1414412491
 10
485.1286262699
 20
-97.6505292828
 10
486.0431075828
 20
-97.3787955341
 10
486.8990774936
 20
-97.3360611687
 10
487.6655990193
 20
-97.5238707178
 10
488.3149680751
 20
-97.9354362551
 10
488.8237147711
 20
-98.5558827298
 10
489.1734516764
 20
-99.3627855896
 10
489.3515383879
 20
-100.3269812628
 10
489.3515383879
 20
-101.4136212056
 10
489.1734516764
 20
-102.5834314193
 10
488.8237147711
 20
-103.7941319149
 10
488.3149680751
 20
-105.0019648219
 10
487.6655990193
 20
-106.1632759122
 10
486.8990774936
 20
-107.2360923771
 10
486.0431075828
 20
-108.1816398345
 10
485.1286262699
 20
-108.9657437356
 10
484.188685292
 20
-109.5600645225
 10
483.2572565652
 20
-109.9431218934
 10
482.3680043505
 20
-110.101071157
 10
481.5530685398
 20
-110.0282036152
 10
480.8419030366
 20
-109.727152891
 10
480.2602112151
 20
-109.2087997418
 10
479.8290169333
 20
-108.4918788011
 10
479.5639046761
 20
-107.6023014595
 10
479.4744562911
 20
-106.57221936
  0
LWPOLYLINE
  5
117
330
1F
100
AcDbEntity
  8
0
  6
Continuous
 62
     7
370
    25
100
AcDbPolyline
 90
       29
 70
   128
 43
0.0
 10
480.8886698535
 20
-105.7558112481
 10
480.9773130701
 20
-104.7961514881
 10
481.2387977788
 20
-103.7822677962
 10
481.6600120444
 20
-102.7650005344
 10
482.2198344249
 20
-101.795359731
 10
482.8901930885
 20
-100.9219672247
 10
483.6374734526
 20
-100.1886185627
 10
484.4242037594
 20
-99.6320869092
 10
485.2109340662
 20
-99.280279085
 10
485.9582144303
 20
-99.1508362037
 10
486.6285730939
 20
-99.2502490716
 10
487.1883954744
 20
-99.5735327126
 10
487.6096097401
 20
-100.1044763349
 10
487.8710944488
 20
-100.8164562083
 10
487.9597376653
 20
-101.673770689
 10
487.8710944488
 20
-102.6334304491
 10
487.6096097401
 20
-103.647314141
 10
487.1883954744
 20
-104.6645814027
 10
486.6285730939
 20
-105.6342222062
 10
485.9582144303
 20
-106.5076147125
 10
485.2109340662
 20
-107.2409633745
 10
484.4242037594
 20
-107.797495028
 10
483.6374734526
 20
-108.1493028521
 10
482.8901930885
 20
-108.2787457335
 10
482.2198344249
 20
-108.1793328655
 10
481.6600120444
 20
-107.8560492246
 10
481.2387977788
 20
-107.3251056022
 10
480.9773130701
 20
-106.6131257288
 10
480.8886698535
 20
-105.7558112481
  0
LWPOLYLINE
  5
118
330
1F
100
AcDbEntity
  8
0
  6
Continuous
 62
     7
370
    25
100
AcDbPolyline
 90
       34
 70
   128
 43
0.0
 10
379.0652933626
 20
-280.4859905871
 10
379.1547417476
 20
-279.3526335806
 10
379.4198540048
 20
-278.1569641422
 10
379.8510482866
 20
-276.9421968807
 10
380.4327401081
 20
-275.75223665
 10
381.1439056113
 20
-274.6300917132
 10
381.958841422
 20
-273.6163193121
 10
382.8480936368
 20
-272.7475598226
 10
383.7795223635
 20
-272.0552124762
 10
384.7194633414
 20
-271.5643005099
 10
385.6339446543
 20
-271.2925667613
 10
386.4899145651
 20
-271.2498323958
 10
387.2564360909
 20
-271.437641945
 10
387.9058051466
 20
-271.8492074823
 10
388.4145518426
 20
-272.469653957
 10
388.7642887479
 20
-273.2765568167
 10
388.9423754594
 20
-274.24075249
 10
388.9423754594
 20
-275.3273924328
 10
388.7642887479
 20
-276.4972026465
 10
388.4145518426
 20
-277.7079031421
 10
387.9058051466
 20
-278.9157360491
 10
387.2564360909
 20
-280.0770471394
 10
386.4899145651
 20
-281.1498636043
 10
385.6339446543
 20
-282.0954110617
 10
384.7194633414
 20
-282.8795149628
 10
383.7795223635
 20
-283.4738357497
 10
382.8480936368
 20
-283.8568931206
 10
381.958841422
 20
-284.0148423842
 10
381.1439056113
 20
-283.9419748424
 10
380.4327401081
 20
-283.6409241182
 10
379.8510482866
 20
-283.122570969
 10
379.4198540048
 20
-282.4056500283
 10
379.1547417476
 20
-281.5160726867
 10
379.0652933626
 20
-280.4859905871
  0
LWPOLYLINE
  5
119
330
1F
100
AcDbEntity
  8
0
  6
Continuous
 62
     7
370
    25
100
AcDbPolyline
 90
       29
 70
   128
 43
0.0
 10
380.479506925
 20
-279.6695824753
 10
380.5681501416
 20
-278.7099227153
 10
380.8296348503
 20
-277.6960390234
 10
381.2508491159
 20
-276.6787717616
 10
381.8106714964
 20
-275.7091309582
 10
382.48103016
 20
-274.8357384519
 10
383.2283105241
 20
-274.1023897899
 10
384.0150408309
 20
-273.5458581363
 10
384.8017711377
 20
-273.1940503122
 10
385.5490515018
 20
-273.0646074309
 10
386.2194101654
 20
-273.1640202988
 10
386.7792325459
 20
-273.4873039398
 10
387.2004468116
 20
-274.0182475621
 10
387.4619315203
 20
-274.7302274355
 10
387.5505747369
 20
-275.5875419162
 10
387.4619315203
 20
-276.5472016763
 10
387.2004468116
 20
-277.5610853681
 10
386.7792325459
 20
-278.5783526299
 10
386.2194101654
 20
-279.5479934333
 10
385.5490515018
 20
-280.4213859397
 10
384.8017711377
 20
-281.1547346017
 10
384.0150408309
 20
-281.7112662552
 10
383.2283105241
 20
-282.0630740793
 10
382.48103016
 20
-282.1925169607
 10
381.8106714964
 20
-282.0931040927
 10
381.2508491159
 20
-281.7698204517
 10
380.8296348503
 20
-281.2388768294
 10
380.5681501416
 20
-280.526896956
 10
380.479506925
 20
-279.6695824753
  0
LWPOLYLINE
  5
11A
330
1F
100
AcDbEntity
  8
0
  6
Continuous
 62
     1
370
    25
100
AcDbPolyline
 90
       43
 70
   128
 43
0.0
 10
449.7052608032
 20
-135.92209098
 10
449.794058564
 20
-139.562734322
 10
450.0601622067
 20
-143.2940263545
 10
450.5027037564
 20
-147.1037963785
 10
451.1202397347
 20
-150.979617716
 10
451.9107558675
 20
-154.9088482434
 10
452.8716736554
 20
-158.8786716275
 10
453.9998587845
 20
-162.8761391294
 10
455.2916313493
 20
-166.8882118411
 10
456.7427778561
 20
-170.9018032154
 10
458.3485649668
 20
-174.9038217513
 10
460.1037549376
 20
-178.8812136963
 10
462.0026227034
 20
-182.8210056245
 10
464.0389745525
 20
-186.7103467536
 10
466.2061683283
 20
-190.5365508612
 10
468.4971350952
 20
-194.2871376648
 10
470.9044021957
 20
-197.9498735298
 10
473.420117625
 20
-201.5128113731
 10
476.0360756423
 20
-204.9643296321
 10
478.7437435361
 20
-208.2931701715
 10
481.5342894566
 20
-211.4884750055
 10
484.3986112231
 20
-214.5398217139
 10
487.3273660132
 20
-217.4372574379
 10
490.3110008377
 20
-220.1713313443
 10
493.3397836999
 20
-222.7331254525
 10
496.4038353396
 20
-225.1142837225
 10
499.4931614573
 20
-227.307039311
 10
502.5976853132
 20
-229.3042399049
 10
505.7072805958
 20
-231.0993710511
 10
508.8118044518
 20
-232.686577405
 10
511.9011305694
 20
-234.0606818292
 10
514.9651822091
 20
-235.2172022808
 10
517.9939650713
 20
-236.1523664305
 10
520.9775998958
 20
-236.8631239671
 10
523.906354686
 20
-237.3471565473
 10
526.7706764524
 20
-237.6028853574
 10
529.561222373
 20
-237.6294762632
 10
532.2688902668
 20
-237.4268425308
 10
534.884848284
 20
-236.9956451092
 10
537.4005637133
 20
-236.3372904747
 10
539.8078308138
 20
-235.4539260435
 10
542.0987975807
 20
-234.3484331665
 10
542.649354161
 20
-234.0395656885
  0
LWPOLYLINE
  5
11B
330
1F
100
AcDbEntity
  8
0
  6
Continuous
 62
     1
370
    25
100
AcDbPolyline
 90
       15
 70
   128
 43
0.0
 10
465.655611748
 20
-100.6680408818
 10
464.0389745525
 20
-101.6831888385
 10
462.0026227034
 20
-103.2214081676
 10
460.1037549376
 20
-104.9688140396
 10
458.3485649668
 20
-106.9197067797
 10
456.7427778561
 20
-109.0677229812
 10
455.2916313493
 20
-111.4058562617
 10
453.9998587845
 20
-113.9264801165
 10
452.8716736554
 20
-116.6213727945
 10
451.9107558675
 20
-119.4817441159
 10
451.1202397347
 20
-122.498264144
 10
450.5027037564
 20
-125.6610936175
 10
450.0601622067
 20
-128.959916044
 10
449.794058564
 20
-132.3839713504
 10
449.7052608032
 20
-135.92209098
  0
LWPOLYLINE
  5
11C
330
1F
100
AcDbEntity
  8
0
  6
Continuous
 62
     1
370
    25
100
AcDbPolyline
 90
       43
 70
   128
 43
0.0
 10
394.5509318706
 20
-231.4521906682
 10
397.7480567988
 20
-229.7090534455
 10
401.1123488918
 20
-228.0741256865
 10
404.6328345279
 20
-226.5527401857
 10
408.2980306147
 20
-225.1498593864
 10
412.0959820445
 20
-223.8700591942
 10
416.0143006891
 20
-222.7175140513
 10
420.0402058075
 20
-221.6959833204
 10
424.160565734
 20
-220.8087990223
 10
428.3619407109
 20
-220.058854968
 10
432.6306267264
 20
-219.448597319
 10
436.9527002139
 20
-218.9800166089
 10
441.314063468
 20
-218.6546412506
 10
445.7004906284
 20
-218.4735325508
 10
450.0976740813
 20
-218.4372812486
 10
454.4912711283
 20
-218.5460055882
 10
458.8669507691
 20
-218.7993509332
 10
463.2104404461
 20
-219.196490924
 10
467.5075725989
 20
-219.7361301723
 10
471.7443308755
 20
-220.4165084871
 10
475.9068958511
 20
-221.2354066158
 10
479.9816901039
 20
-222.1901534829
 10
483.9554225019
 20
-223.2776349026
 10
487.8151315561
 20
-224.4943037364
 10
491.5482276978
 20
-225.8361914636
 10
495.1425343433
 20
-227.2989211253
 10
498.5863276114
 20
-228.8777216013
 10
501.8683745643
 20
-230.5674431727
 10
504.977969847
 20
-232.362574319
 10
507.904970606
 20
-234.2572596954
 10
510.6398295731
 20
-236.245319232
 10
513.173626207
 20
-238.3202682919
 10
515.4980957897
 20
-240.4753388226
 10
517.6056563845
 20
-242.7035014318
 10
519.4894335668
 20
-244.9974883163
 10
521.1432828469
 20
-247.3498169677
 10
522.5618097124
 20
-249.7528145788
 10
523.7403872234
 20
-252.198643071
 10
524.6751711051
 20
-254.67932466
 10
525.3631122866
 20
-257.1867678782
 10
525.801966847
 20
-259.7127939668
 10
525.9903033337
 20
-262.2491635539
 10
525.998154022
 20
-262.8839029733
  0
LWPOLYLINE
  5
11D
330
1F
100
AcDbEntity
  8
0
  6
Continuous
 62
     1
370
    25
100
AcDbPolyline
 90
       15
 70
   128
 43
0.0
 10
371.998154022
 20
-262.8839029733
 10
372.0688006116
 20
-260.9802024176
 10
372.3825240738
 20
-258.447971918
 10
372.9461517961
 20
-255.9302105034
 10
373.7578453422
 20
-253.4351305884
 10
374.8149571363
 20
-250.9708706049
 10
376.1140390995
 20
-248.5454684568
 10
377.6508538964
 20
-246.1668353019
 10
379.4203887566
 20
-243.842729747
 10
381.4168718253
 20
-241.5807325415
 10
383.6337909895
 20
-239.38822185
 10
386.0639151199
 20
-237.2723491866
 10
388.6993176565
 20
-235.2400160884
 10
391.531402464
 20
-233.2978516032
 10
394.5509318706
 20
-231.4521906682
  0
ARC
  5
11E
330
1F
100
AcDbEntity
  8
0
  6
Continuous
 62
     1
370
    25
100
AcDbCircle
 10
447.8328539673
 20
-199.8664330487
 30
0.0
 40
101.1897796073914
100
AcDbArc
 50
10.251846504
 51
49.7427769633
  0
ARC
  5
11F
330
1F
100
AcDbEntity
  8
0
  6
Continuous
 62
     1
370
    25
100
AcDbCircle
 10
448.998154022
 20
-197.825007936
 30
0.0
 40
101.2121791363381
100
AcDbArc
 50
250.2708333007
 51
289.7291666993
  0
ENDSEC
  0
SECTION
  2
OBJECTS
  0
DICTIONARY
  5
C
330
0
100
AcDbDictionary
281
     1
  3
ACAD_GROUP
350
D
  3
ACAD_LAYOUT
350
1A
  3
ACAD_MLINESTYLE
350
17
  3
ACAD_PLOTSETTINGS
350
19
  3
ACAD_PLOTSTYLENAME
350
E
  3
ACAD_SCALELIST
350
47
  3
DWGPROPS
350
120
  0
DICTIONARY
  5
D
102
{ACAD_REACTORS
330
C
102
}
330
C
100
AcDbDictionary
281
     1
  0
DICTIONARY
  5
1A
102
{ACAD_REACTORS
330
C
102
}
330
C
100
AcDbDictionary
281
     1
  3
Layout1
350
1E
  3
Layout2
350
26
  3
Model
350
22
  0
DICTIONARY
  5
17
102
{ACAD_REACTORS
330
C
102
}
330
C
100
AcDbDictionary
281
     1
  3
Standard
350
18
  0
DICTIONARY
  5
19
102
{ACAD_REACTORS
330
C
102
}
330
C
100
AcDbDictionary
281
     1
  0
ACDBDICTIONARYWDFLT
  5
E
102
{ACAD_REACTORS
330
C
102
}
330
C
100
AcDbDictionary
281
     1
  3
Normal
350
F
100
AcDbDictionaryWithDefault
340
F
  0
DICTIONARY
  5
47
102
{ACAD_REACTORS
330
C
102
}
330
C
100
AcDbDictionary
281
     1
  3
A0
350
48
  3
A1
350
49
  3
A2
350
4A
  3
A3
350
4B
  3
A4
350
4C
  3
A5
350
4D
  3
A6
350
4E
  3
A7
350
4F
  3
A8
350
50
  3
A9
350
51
  3
B0
350
52
  3
B1
350
53
  3
B2
350
54
  3
B3
350
55
  3
B4
350
56
  3
B5
350
57
  3
B6
350
58
  3
B7
350
59
  3
B8
350
5A
  3
B9
350
5B
  3
C0
350
5C
  3
C1
350
5D
  3
C2
350
5E
  3
C3
350
5F
  3
C4
350
60
  3
C5
350
61
  3
C6
350
62
  3
C7
350
63
  3
C8
350
64
  3
C9
350
65
  3
D0
350
66
  3
D1
350
67
  3
D2
350
68
  0
XRECORD
  5
120
102
{ACAD_REACTORS
330
C
102
}
330
C
100
AcDbXrecord
280
     1
  1
DWGPROPS COOKIE
  2

  3

  4

  6

  7

  8
b.kav
  9

300
=
301
=
302
=
303
=
304
=
305
=
306
=
307
=
308
=
309
=
 40
0.0
 41
2459741.479578993
 42
2459741.479579248
  1

 90
        0
  0
LAYOUT
  5
1E
102
{ACAD_REACTORS
330
1A
102
}
330
1A
100
AcDbPlotSettings
  1

  2
none_device
  4

  6

 40
0.0
 41
0.0
 42
0.0
 43
0.0
 44
0.0
 45
0.0
 46
0.0
 47
0.0
 48
0.0
 49
0.0
140
0.0
141
0.0
142
1.0
143
1.0
 70
   688
 72
     1
 73
     0
 74
     5
  7

 75
    16
147
1.0
148
0.0
149
0.0
100
AcDbLayout
  1
Layout1
 70
     1
 71
     1
 10
0.0
 20
0.0
 11
420.0
 21
297.0
 12
0.0
 22
0.0
 32
0.0
 14
1.0000000000E+20
 24
1.0000000000E+20
 34
1.0000000000E+20
 15
-1.0000000000E+20
 25
-1.0000000000E+20
 35
-1.0000000000E+20
146
0.0
 13
0.0
 23
0.0
 33
0.0
 16
1.0
 26
0.0
 36
0.0
 17
0.0
 27
1.0
 37
0.0
 76
     0
330
1B
  0
LAYOUT
  5
26
102
{ACAD_REACTORS
330
1A
102
}
330
1A
100
AcDbPlotSettings
  1

  2
none_device
  4

  6

 40
0.0
 41
0.0
 42
0.0
 43
0.0
 44
0.0
 45
0.0
 46
0.0
 47
0.0
 48
0.0
 49
0.0
140
0.0
141
0.0
142
1.0
143
1.0
 70
   688
 72
     1
 73
     0
 74
     5
  7

 75
    16
147
1.0
148
0.0
149
0.0
100
AcDbLayout
  1
Layout2
 70
     1
 71
     2
 10
0.0
 20
0.0
 11
0.0
 21
0.0
 12
0.0
 22
0.0
 32
0.0
 14
0.0
 24
0.0
 34
0.0
 15
0.0
 25
0.0
 35
0.0
146
0.0
 13
0.0
 23
0.0
 33
0.0
 16
1.0
 26
0.0
 36
0.0
 17
0.0
 27
1.0
 37
0.0
 76
     0
330
23
  0
LAYOUT
  5
22
102
{ACAD_REACTORS
330
1A
102
}
330
1A
100
AcDbPlotSettings
  1

  2
none_device
  4
Letter_(8.50_x_11.00_Inches)
  6

 40
6.35
 41
6.35
 42
6.35000508
 43
6.35000508
 44
215.9
 45
279.4
 46
0.0
 47
0.0
 48
0.0
 49
0.0
140
0.0
141
0.0
142
1.0
143
1.0
 70
  1712
 72
     1
 73
     0
 74
     0
  7

 75
     0
147
1.0
148
0.0
149
0.0
100
AcDbLayout
  1
Model
 70
     1
 71
     0
 10
0.0
 20
0.0
 11
279.4
 21
215.9
 12
0.0
 22
0.0
 32
0.0
 14
0.0
 24
0.0
 34
0.0
 15
279.4
 25
215.9
 35
0.0
146
0.0
 13
0.0
 23
0.0
 33
0.0
 16
1.0
 26
0.0
 36
0.0
 17
0.0
 27
1.0
 37
0.0
 76
     0
330
1F
331
29
  0
MLINESTYLE
  5
18
102
{ACAD_REACTORS
330
17
102
}
330
17
100
AcDbMlineStyle
  2
Standard
 70
     0
  3

 62
   256
 51
90.0
 52
90.0
 71
     2
 49
0.5
 62
   256
  6
BYLAYER
 49
-0.5
 62
   256
  6
BYLAYER
  0
ACDBPLACEHOLDER
  5
F
102
{ACAD_REACTORS
330
E
102
}
330
E
  0
SCALE
  5
48
102
{ACAD_REACTORS
330
47
102
}
330
47
100
AcDbScale
 70
     0
300
1:1
140
1.0
141
1.0
290
     1
  0
SCALE
  5
49
102
{ACAD_REACTORS
330
47
102
}
330
47
100
AcDbScale
 70
     0
300
1:2
140
1.0
141
2.0
290
     0
  0
SCALE
  5
4A
102
{ACAD_REACTORS
330
47
102
}
330
47
100
AcDbScale
 70
     0
300
1:4
140
1.0
141
4.0
290
     0
  0
SCALE
  5
4B
102
{ACAD_REACTORS
330
47
102
}
330
47
100
AcDbScale
 70
     0
300
1:5
140
1.0
141
5.0
290
     0
  0
SCALE
  5
4C
102
{ACAD_REACTORS
330
47
102
}
330
47
100
AcDbScale
 70
     0
300
1:8
140
1.0
141
8.0
290
     0
  0
SCALE
  5
4D
102
{ACAD_REACTORS
330
47
102
}
330
47
100
AcDbScale
 70
     0
300
1:10
140
1.0
141
10.0
290
     0
  0
SCALE
  5
4E
102
{ACAD_REACTORS
330
47
102
}
330
47
100
AcDbScale
 70
     0
300
1:16
140
1.0
141
16.0
290
     0
  0
SCALE
  5
4F
102
{ACAD_REACTORS
330
47
102
}
330
47
100
AcDbScale
 70
     0
300
1:20
140
1.0
141
20.0
290
     0
  0
SCALE
  5
50
102
{ACAD_REACTORS
330
47
102
}
330
47
100
AcDbScale
 70
     0
300
1:30
140
1.0
141
30.0
290
     0
  0
SCALE
  5
51
102
{ACAD_REACTORS
330
47
102
}
330
47
100
AcDbScale
 70
     0
300
1:40
140
1.0
141
40.0
290
     0
  0
SCALE
  5
52
102
{ACAD_REACTORS
330
47
102
}
330
47
100
AcDbScale
 70
     0
300
1:50
140
1.0
141
50.0
290
     0
  0
SCALE
  5
53
102
{ACAD_REACTORS
330
47
102
}
330
47
100
AcDbScale
 70
     0
300
1:100
140
1.0
141
100.0
290
     0
  0
SCALE
  5
54
102
{ACAD_REACTORS
330
47
102
}
330
47
100
AcDbScale
 70
     0
300
2:1
140
2.0
141
1.0
290
     0
  0
SCALE
  5
55
102
{ACAD_REACTORS
330
47
102
}
330
47
100
AcDbScale
 70
     0
300
4:1
140
4.0
141
1.0
290
     0
  0
SCALE
  5
56
102
{ACAD_REACTORS
330
47
102
}
330
47
100
AcDbScale
 70
     0
300
8:1
140
8.0
141
1.0
290
     0
  0
SCALE
  5
57
102
{ACAD_REACTORS
330
47
102
}
330
47
100
AcDbScale
 70
     0
300
10:1
140
10.0
141
1.0
290
     0
  0
SCALE
  5
58
102
{ACAD_REACTORS
330
47
102
}
330
47
100
AcDbScale
 70
     0
300
100:1
140
100.0
141
1.0
290
     0
  0
SCALE
  5
59
102
{ACAD_REACTORS
330
47
102
}
330
47
100
AcDbScale
 70
     0
300
1/128" = 1'-0"
140
0.0078125
141
12.0
290
     0
  0
SCALE
  5
5A
102
{ACAD_REACTORS
330
47
102
}
330
47
100
AcDbScale
 70
     0
300
1/64" = 1'-0"
140
0.015625
141
12.0
290
     0
  0
SCALE
  5
5B
102
{ACAD_REACTORS
330
47
102
}
330
47
100
AcDbScale
 70
     0
300
1/32" = 1'-0"
140
0.03125
141
12.0
290
     0
  0
SCALE
  5
5C
102
{ACAD_REACTORS
330
47
102
}
330
47
100
AcDbScale
 70
     0
300
1/16" = 1'-0"
140
0.0625
141
12.0
290
     0
  0
SCALE
  5
5D
102
{ACAD_REACTORS
330
47
102
}
330
47
100
AcDbScale
 70
     0
300
3/32" = 1'-0"
140
0.09375
141
12.0
290
     0
  0
SCALE
  5
5E
102
{ACAD_REACTORS
330
47
102
}
330
47
100
AcDbScale
 70
     0
300
1/8" = 1'-0"
140
0.125
141
12.0
290
     0
  0
SCALE
  5
5F
102
{ACAD_REACTORS
330
47
102
}
330
47
100
AcDbScale
 70
     0
300
3/16" = 1'-0"
140
0.1875
141
12.0
290
     0
  0
SCALE
  5
60
102
{ACAD_REACTORS
330
47
102
}
330
47
100
AcDbScale
 70
     0
300
1/4" = 1'-0"
140
0.25
141
12.0
290
     0
  0
SCALE
  5
61
102
{ACAD_REACTORS
330
47
102
}
330
47
100
AcDbScale
 70
     0
300
3/8" = 1'-0"
140
0.375
141
12.0
290
     0
  0
SCALE
  5
62
102
{ACAD_REACTORS
330
47
102
}
330
47
100
AcDbScale
 70
     0
300
1/2" = 1'-0"
140
0.5
141
12.0
290
     0
  0
SCALE
  5
63
102
{ACAD_REACTORS
330
47
102
}
330
47
100
AcDbScale
 70
     0
300
3/4" = 1'-0"
140
0.75
141
12.0
290
     0
  0
SCALE
  5
64
102
{ACAD_REACTORS
330
47
102
}
330
47
100
AcDbScale
 70
     0
300
1" = 1'-0"
140
1.0
141
12.0
290
     0
  0
SCALE
  5
65
102
{ACAD_REACTORS
330
47
102
}
330
47
100
AcDbScale
 70
     0
300
1-1/2" = 1'-0"
140
1.5
141
12.0
290
     0
  0
SCALE
  5
66
102
{ACAD_REACTORS
330
47
102
}
330
47
100
AcDbScale
 70
     0
300
3" = 1'-0"
140
3.0
141
12.0
290
     0
  0
SCALE
  5
67
102
{ACAD_REACTORS
330
47
102
}
330
47
100
AcDbScale
 70
     0
300
6" = 1'-0"
140
6.0
141
12.0
290
     0
  0
SCALE
  5
68
102
{ACAD_REACTORS
330
47
102
}
330
47
100
AcDbScale
 70
     0
300
1'-0" = 1'-0"
140
12.0
141
12.0
290
     0
  0
ENDSEC
  0
EOF
